  0
SECTION
  2
HEADER
  9
$ACADVER
  1
AC1015
  9
$ACADMAINTVER
 70
     6
  9
$DWGCODEPAGE
  3
ANSI_1251
  9
$INSBASE
 10
0.0
 20
0.0
 30
0.0
  9
$EXTMIN
 10
0.0
 20
0.0
 30
0.0
  9
$EXTMAX
 10
431.8
 20
279.4
 30
0.0
  9
$LIMMIN
 10
0.0
 20
0.0
  9
$LIMMAX
 10
431.8
 20
279.4
  9
$ORTHOMODE
 70
     0
  9
$REGENMODE
 70
     1
  9
$FILLMODE
 70
     1
  9
$QTEXTMODE
 70
     0
  9
$MIRRTEXT
 70
     1
  9
$LTSCALE
 40
1.0
  9
$ATTMODE
 70
     1
  9
$TEXTSIZE
 40
3.5
  9
$TRACEWID
 40
1.0
  9
$TEXTSTYLE
  7
STANDARD
  9
$CLAYER
  8
0
  9
$CELTYPE
  6
ByLayer
  9
$CECOLOR
 62
   256
  9
$CELTSCALE
 40
1.0
  9
$DISPSILH
 70
     0
  9
$DIMSCALE
 40
1.0
  9
$DIMASZ
 40
5.0
  9
$DIMEXO
 40
0.0
  9
$DIMDLI
 40
3.75
  9
$DIMRND
 40
0.0
  9
$DIMDLE
 40
0.0
  9
$DIMEXE
 40
1.0
  9
$DIMTP
 40
0.0
  9
$DIMTM
 40
0.0
  9
$DIMTXT
 40
3.5
  9
$DIMCEN
 40
2.5
  9
$DIMTSZ
 40
0.0
  9
$DIMTOL
 70
     0
  9
$DIMLIM
 70
     0
  9
$DIMTIH
 70
     1
  9
$DIMTOH
 70
     1
  9
$DIMSE1
 70
     0
  9
$DIMSE2
 70
     0
  9
$DIMTAD
 70
     1
  9
$DIMZIN
 70
     0
  9
$DIMBLK
  1

  9
$DIMASO
 70
     1
  9
$DIMSHO
 70
     1
  9
$DIMPOST
  1

  9
$DIMAPOST
  1

  9
$DIMALT
 70
     0
  9
$DIMALTD
 70
     3
  9
$DIMALTF
 40
0.0393700787
  9
$DIMLFAC
 40
1.0
  9
$DIMTOFL
 70
     1
  9
$DIMTVP
 40
0.0
  9
$DIMTIX
 70
     0
  9
$DIMSOXD
 70
     0
  9
$DIMSAH
 70
     0
  9
$DIMBLK1
  1

  9
$DIMBLK2
  1

  9
$DIMSTYLE
  2
ISO-25
  9
$DIMCLRD
 70
     0
  9
$DIMCLRE
 70
     0
  9
$DIMCLRT
 70
     0
  9
$DIMTFAC
 40
1.0
  9
$DIMGAP
 40
1.5
  9
$DIMJUST
 70
     0
  9
$DIMSD1
 70
     0
  9
$DIMSD2
 70
     0
  9
$DIMTOLJ
 70
     0
  9
$DIMTZIN
 70
     0
  9
$DIMALTZ
 70
     0
  9
$DIMALTTZ
 70
     0
  9
$DIMUPT
 70
     0
  9
$DIMDEC
 70
     1
  9
$DIMTDEC
 70
     3
  9
$DIMALTU
 70
     2
  9
$DIMALTTD
 70
     3
  9
$DIMTXSTY
  7
STANDARD
  9
$DIMAUNIT
 70
     0
  9
$DIMADEC
 70
     2
  9
$DIMALTRND
 40
0.0
  9
$DIMAZIN
 70
     0
  9
$DIMDSEP
 70
    44
  9
$DIMATFIT
 70
     3
  9
$DIMFRAC
 70
     0
  9
$DIMLDRBLK
  1

  9
$DIMLUNIT
 70
     2
  9
$DIMLWD
 70
    -2
  9
$DIMLWE
 70
    -2
  9
$DIMTMOVE
 70
     0
  9
$LUNITS
 70
     2
  9
$LUPREC
 70
     3
  9
$SKETCHINC
 40
1.0
  9
$FILLETRAD
 40
0.0
  9
$AUNITS
 70
     0
  9
$AUPREC
 70
     2
  9
$MENU
  1
.
  9
$ELEVATION
 40
0.0
  9
$PELEVATION
 40
0.0
  9
$THICKNESS
 40
0.0
  9
$LIMCHECK
 70
     0
  9
$CHAMFERA
 40
0.0
  9
$CHAMFERB
 40
0.0
  9
$CHAMFERC
 40
0.0
  9
$CHAMFERD
 40
0.0
  9
$SKPOLY
 70
     0
  9
$TDCREATE
 40
2461039.581514005
  9
$TDUCREATE
 40
2461039.456514005
  9
$TDUPDATE
 40
2461039.581514676
  9
$TDUUPDATE
 40
2461039.456514676
  9
$TDINDWG
 40
0.0000000116
  9
$TDUSRTIMER
 40
0.0000000116
  9
$USRTIMER
 70
     1
  9
$ANGBASE
 50
0.0
  9
$ANGDIR
 70
     0
  9
$PDMODE
 70
     0
  9
$PDSIZE
 40
-1.0
  9
$PLINEWID
 40
0.0
  9
$SPLFRAME
 70
     0
  9
$SPLINETYPE
 70
     6
  9
$SPLINESEGS
 70
     8
  9
$HANDSEED
  5
3BF
  9
$SURFTAB1
 70
     6
  9
$SURFTAB2
 70
     6
  9
$SURFTYPE
 70
     6
  9
$SURFU
 70
     6
  9
$SURFV
 70
     6
  9
$UCSBASE
  2

  9
$UCSNAME
  2

  9
$UCSORG
 10
0.0
 20
0.0
 30
0.0
  9
$UCSXDIR
 10
1.0
 20
0.0
 30
0.0
  9
$UCSYDIR
 10
0.0
 20
1.0
 30
0.0
  9
$UCSORTHOREF
  2

  9
$UCSORTHOVIEW
 70
     0
  9
$UCSORGTOP
 10
0.0
 20
0.0
 30
0.0
  9
$UCSORGBOTTOM
 10
0.0
 20
0.0
 30
0.0
  9
$UCSORGLEFT
 10
0.0
 20
0.0
 30
0.0
  9
$UCSORGRIGHT
 10
0.0
 20
0.0
 30
0.0
  9
$UCSORGFRONT
 10
0.0
 20
0.0
 30
0.0
  9
$UCSORGBACK
 10
0.0
 20
0.0
 30
0.0
  9
$PUCSBASE
  2

  9
$PUCSNAME
  2

  9
$PUCSORG
 10
0.0
 20
0.0
 30
0.0
  9
$PUCSXDIR
 10
1.0
 20
0.0
 30
0.0
  9
$PUCSYDIR
 10
0.0
 20
1.0
 30
0.0
  9
$PUCSORTHOREF
  2

  9
$PUCSORTHOVIEW
 70
     0
  9
$PUCSORGTOP
 10
0.0
 20
0.0
 30
0.0
  9
$PUCSORGBOTTOM
 10
0.0
 20
0.0
 30
0.0
  9
$PUCSORGLEFT
 10
0.0
 20
0.0
 30
0.0
  9
$PUCSORGRIGHT
 10
0.0
 20
0.0
 30
0.0
  9
$PUCSORGFRONT
 10
0.0
 20
0.0
 30
0.0
  9
$PUCSORGBACK
 10
0.0
 20
0.0
 30
0.0
  9
$USERI1
 70
     0
  9
$USERI2
 70
     0
  9
$USERI3
 70
     0
  9
$USERI4
 70
     0
  9
$USERI5
 70
     0
  9
$USERR1
 40
0.0
  9
$USERR2
 40
0.0
  9
$USERR3
 40
0.0
  9
$USERR4
 40
0.0
  9
$USERR5
 40
0.0
  9
$WORLDVIEW
 70
     1
  9
$SHADEDGE
 70
     3
  9
$SHADEDIF
 70
    70
  9
$TILEMODE
 70
     1
  9
$MAXACTVP
 70
    64
  9
$PINSBASE
 10
0.0
 20
0.0
 30
0.0
  9
$PLIMCHECK
 70
     0
  9
$PEXTMIN
 10
1.0000000000E+20
 20
1.0000000000E+20
 30
1.0000000000E+20
  9
$PEXTMAX
 10
-1.0000000000E+20
 20
-1.0000000000E+20
 30
-1.0000000000E+20
  9
$PLIMMIN
 10
0.0
 20
0.0
  9
$PLIMMAX
 10
420.0
 20
297.0
  9
$UNITMODE
 70
     0
  9
$VISRETAIN
 70
     1
  9
$PLINEGEN
 70
     0
  9
$PSLTSCALE
 70
     1
  9
$TREEDEPTH
 70
  3020
  9
$CMLSTYLE
  2
Standard
  9
$CMLJUST
 70
     0
  9
$CMLSCALE
 40
20.0
  9
$PROXYGRAPHICS
 70
     1
  9
$MEASUREMENT
 70
     1
  9
$CELWEIGHT
370
    -1
  9
$ENDCAPS
280
     0
  9
$JOINSTYLE
280
     0
  9
$LWDISPLAY
290
     1
  9
$INSUNITS
 70
     4
  9
$HYPERLINKBASE
  1

  9
$STYLESHEET
  1

  9
$XEDIT
290
     1
  9
$CEPSNTYPE
380
     0
  9
$PSTYLEMODE
290
     1
  9
$FINGERPRINTGUID
  2
{575aa5ad-125e-40c0-82d6-46215af59431}
  9
$VERSIONGUID
  2
{FAEB1C32-E019-11D5-929B-00C0DF256EC4}
  9
$EXTNAMES
290
     1
  9
$PSVPSCALE
 40
0.0
  9
$OLESTARTUP
290
     0
  0
ENDSEC
  0
SECTION
  2
CLASSES
  0
CLASS
  1
ACDBDICTIONARYWDFLT
  2
AcDbDictionaryWithDefault
  3
ObjectDBX Classes
 90
        0
280
     0
281
     0
  0
CLASS
  1
VISUALSTYLE
  2
AcDbVisualStyle
  3
ObjectDBX Classes
 90
     4095
280
     0
281
     0
  0
CLASS
  1
MATERIAL
  2
AcDbMaterial
  3
ObjectDBX Classes
 90
     1153
280
     0
281
     0
  0
CLASS
  1
SCALE
  2
AcDbScale
  3
ObjectDBX Classes
 90
     1153
280
     0
281
     0
  0
CLASS
  1
TABLESTYLE
  2
AcDbTableStyle
  3
ObjectDBX Classes
 90
     4095
280
     0
281
     0
  0
CLASS
  1
MLEADERSTYLE
  2
AcDbMLeaderStyle
  3
ACDB_MLEADERSTYLE_CLASS
 90
     4095
280
     0
281
     0
  0
CLASS
  1
SUN
  2
AcDbSun
  3
SCENEOE
 90
     1153
280
     0
281
     0
  0
CLASS
  1
ACDBPLACEHOLDER
  2
AcDbPlaceHolder
  3
ObjectDBX Classes
 90
        0
280
     0
281
     0
  0
CLASS
  1
LAYOUT
  2
AcDbLayout
  3
ObjectDBX Classes
 90
        0
280
     0
281
     0
  0
ENDSEC
  0
SECTION
  2
TABLES
  0
TABLE
  2
VPORT
  5
8
330
0
100
AcDbSymbolTable
 70
     1
  0
VPORT
  5
29
330
8
100
AcDbSymbolTableRecord
100
AcDbViewportTableRecord
  2
*Active
 70
     0
 10
0.0
 20
0.0
 11
1.0
 21
1.0
 12
215.9
 22
139.7
 13
0.0
 23
0.0
 14
10.0
 24
10.0
 15
10.0
 25
10.0
 16
0.0
 26
0.0
 36
1.0
 17
0.0
 27
0.0
 37
0.0
 40
279.4
 41
1.5454545455
 42
50.0
 43
0.0
 44
0.0
 50
0.0
 51
0.0
 71
     0
 72
  2000
 73
     1
 74
     3
 75
     0
 76
     0
 77
     0
 78
     0
281
     0
 65
     1
110
0.0
120
0.0
130
0.0
111
1.0
121
0.0
131
0.0
112
0.0
122
1.0
132
0.0
 79
     0
146
0.0
  0
ENDTAB
  0
TABLE
  2
LTYPE
  5
5
330
0
100
AcDbSymbolTable
 70
     8
  0
LTYPE
  5
14
330
5
100
AcDbSymbolTableRecord
100
AcDbLinetypeTableRecord
  2
ByBlock
 70
     0
  3

 72
    65
 73
     0
 40
0.0
  0
LTYPE
  5
15
330
5
100
AcDbSymbolTableRecord
100
AcDbLinetypeTableRecord
  2
ByLayer
 70
     0
  3

 72
    65
 73
     0
 40
0.0
  0
LTYPE
  5
16
330
5
100
AcDbSymbolTableRecord
100
AcDbLinetypeTableRecord
  2
Continuous
 70
     0
  3
Solid line
 72
    65
 73
     0
 40
0.0
  0
LTYPE
  5
5E
330
5
100
AcDbSymbolTableRecord
100
AcDbLinetypeTableRecord
  2
SLD-Сплошная
 70
     0
  3
SolidWorks Line Style
 72
    65
 73
     0
 40
0.0
  0
LTYPE
  5
5F
330
5
100
AcDbSymbolTableRecord
100
AcDbLinetypeTableRecord
  2
SLD-Штриховая
 70
     0
  3
SolidWorks Line Style
 72
    65
 73
     2
 40
1.905
 49
1.27
 74
     0
 49
-0.635
 74
     0
  0
LTYPE
  5
60
330
5
100
AcDbSymbolTableRecord
100
AcDbLinetypeTableRecord
  2
SLD-Штрихпункт.-с-двумя-точками
 70
     0
  3
SolidWorks Line Style
 72
    65
 73
     6
 40
12.7
 49
6.35
 74
     0
 49
-1.27
 74
     0
 49
1.27
 74
     0
 49
-1.27
 74
     0
 49
1.27
 74
     0
 49
-1.27
 74
     0
  0
LTYPE
  5
61
330
5
100
AcDbSymbolTableRecord
100
AcDbLinetypeTableRecord
  2
SLD-Штрихпункт.-утолщ.
 70
     0
  3
SolidWorks Line Style
 72
    65
 73
     4
 40
10.16
 49
6.35
 74
     0
 49
-1.27
 74
     0
 49
1.27
 74
     0
 49
-1.27
 74
     0
  0
LTYPE
  5
62
330
5
100
AcDbSymbolTableRecord
100
AcDbLinetypeTableRecord
  2
SLD-Осевая
 70
     0
  3
SolidWorks Line Style
 72
    65
 73
     4
 40
19.05
 49
15.24
 74
     0
 49
-1.27
 74
     0
 49
1.27
 74
     0
 49
-1.27
 74
     0
  0
LTYPE
  5
63
330
5
100
AcDbSymbolTableRecord
100
AcDbLinetypeTableRecord
  2
SLD-Сшитая
 70
     0
  3
SolidWorks Line Style
 72
    65
 73
     2
 40
0.635
 49
0.0
 74
     0
 49
-0.635
 74
     0
  0
LTYPE
  5
64
330
5
100
AcDbSymbolTableRecord
100
AcDbLinetypeTableRecord
  2
SLD-Тонкая-Толстая
 70
     0
  3
SolidWorks Line Style
 72
    65
 73
     2
 40
5.080508
 49
0.000508
 74
     0
 49
-5.08
 74
     0
  0
ENDTAB
  0
TABLE
  2
LAYER
  5
2
330
0
100
AcDbSymbolTable
 70
     3
  0
LAYER
  5
10
330
2
100
AcDbSymbolTableRecord
100
AcDbLayerTableRecord
  2
0
 70
     0
 62
     7
  6
Continuous
370
    -3
390
F
  0
LAYER
  5
65
330
2
100
AcDbSymbolTableRecord
100
AcDbLayerTableRecord
  2
ВОДЯНОЙ_ЗНАК
 70
     0
 62
    11
  6
SLD-Сплошная
370
    -3
390
F
  0
LAYER
  5
66
330
2
100
AcDbSymbolTableRecord
100
AcDbLayerTableRecord
  2
ОСНОВНОЙ
 70
     0
 62
     7
  6
SLD-Сплошная
370
    -3
390
F
  0
ENDTAB
  0
TABLE
  2
STYLE
  5
3
330
0
100
AcDbSymbolTable
 70
     1
  0
STYLE
  5
11
330
3
100
AcDbSymbolTableRecord
100
AcDbTextStyleTableRecord
  2
STANDARD
 70
     0
 40
0.0
 41
1.0
 50
0.0
 71
     0
 42
3.5
  3
GOST-TYPE-A.TTF
  4

1001
ACAD
1000
GOST TYPE A
1071
 16777250
  0
ENDTAB
  0
TABLE
  2
VIEW
  5
6
330
0
100
AcDbSymbolTable
 70
     0
  0
ENDTAB
  0
TABLE
  2
UCS
  5
7
330
0
100
AcDbSymbolTable
 70
     0
  0
ENDTAB
  0
TABLE
  2
APPID
  5
9
330
0
100
AcDbSymbolTable
 70
     1
  0
APPID
  5
12
330
9
100
AcDbSymbolTableRecord
100
AcDbRegAppTableRecord
  2
ACAD
 70
     0
  0
ENDTAB
  0
TABLE
  2
DIMSTYLE
  5
A
330
0
100
AcDbSymbolTable
 70
     1
100
AcDbDimStyleTable
  0
DIMSTYLE
105
27
330
A
100
AcDbSymbolTableRecord
100
AcDbDimStyleTableRecord
  2
ISO-25
 70
     0
 41
2.5
 42
0.625
 43
3.75
 44
1.25
 73
     0
 74
     0
 77
     1
 78
     8
140
2.5
141
2.5
143
0.0393700787
147
0.625
171
     3
172
     1
178
     0
271
     2
272
     2
274
     3
278
    44
283
     0
284
     8
340
11
  0
ENDTAB
  0
TABLE
  2
BLOCK_RECORD
  5
1
330
0
100
AcDbSymbolTable
 70
     1
  0
BLOCK_RECORD
  5
1F
330
1
100
AcDbSymbolTableRecord
100
AcDbBlockTableRecord
  2
*Model_Space
340
22
  0
BLOCK_RECORD
  5
1B
330
1
100
AcDbSymbolTableRecord
100
AcDbBlockTableRecord
  2
*Paper_Space
340
1E
  0
BLOCK_RECORD
  5
23
330
1
100
AcDbSymbolTableRecord
100
AcDbBlockTableRecord
  2
*Paper_Space0
340
26
  0
ENDTAB
  0
ENDSEC
  0
SECTION
  2
BLOCKS
  0
BLOCK
  5
20
330
1F
100
AcDbEntity
  8
0
100
AcDbBlockBegin
  2
*Model_Space
 70
     0
 10
0.0
 20
0.0
 30
0.0
  3
*Model_Space
  1

  0
ENDBLK
  5
21
330
1F
100
AcDbEntity
  8
0
100
AcDbBlockEnd
  0
BLOCK
  5
1C
330
1B
100
AcDbEntity
 67
     1
  8
0
100
AcDbBlockBegin
  2
*Paper_Space
 70
     0
 10
0.0
 20
0.0
 30
0.0
  3
*Paper_Space
  1

  0
ENDBLK
  5
1D
330
1B
100
AcDbEntity
 67
     1
  8
0
100
AcDbBlockEnd
  0
BLOCK
  5
24
330
23
100
AcDbEntity
  8
0
100
AcDbBlockBegin
  2
*Paper_Space0
 70
     0
 10
0.0
 20
0.0
 30
0.0
  3
*Paper_Space0
  1

  0
ENDBLK
  5
25
330
23
100
AcDbEntity
  8
0
100
AcDbBlockEnd
  0
ENDSEC
  0
SECTION
  2
ENTITIES
  0
LINE
  5
67
330
1F
100
AcDbEntity
  8
0
  6
SLD-Сплошная
 62
     7
370
    25
100
AcDbLine
 10
146.2856429496
 20
119.4426077518
 30
0.0
 11
147.7218595807
 21
119.4426077518
 31
0.0
  0
LINE
  5
68
330
1F
100
AcDbEntity
  8
0
  6
SLD-Сплошная
 62
     7
370
    25
100
AcDbLine
 10
181.2218595807
 20
174.1926077518
 30
0.0
 11
178.7738595807
 21
174.1926077518
 31
0.0
  0
LINE
  5
69
330
1F
100
AcDbEntity
  8
0
  6
SLD-Сплошная
 62
     7
370
    25
100
AcDbLine
 10
150.1763218553
 20
174.1926077518
 30
0.0
 11
146.7327167457
 21
174.1926077518
 31
0.0
  0
LINE
  5
6A
330
1F
100
AcDbEntity
  8
0
  6
SLD-Сплошная
 62
     7
370
    25
100
AcDbLine
 10
261.7218595807
 20
126.7926077518
 30
0.0
 11
264.7218595807
 21
126.7926077518
 31
0.0
  0
ARC
  5
6B
330
1F
100
AcDbEntity
  8
0
  6
SLD-Сплошная
 62
     7
370
    25
100
AcDbCircle
 10
253.7718595807
 20
129.8926077518
 30
0.0
 40
1.75
100
AcDbArc
 50
270.0
 51
310.3535933099
  0
ARC
  5
6C
330
1F
100
AcDbEntity
  8
0
  6
SLD-Сплошная
 62
     7
370
    25
100
AcDbCircle
 10
253.7718595807
 20
130.3926077518
 30
0.0
 40
2.25
100
AcDbArc
 50
180.0
 51
270.0
  0
ARC
  5
6D
330
1F
100
AcDbEntity
  8
0
  6
SLD-Сплошная
 62
     7
370
    25
100
AcDbCircle
 10
253.7718595807
 20
168.9926077518
 30
0.0
 40
1.75
100
AcDbArc
 50
49.6464066901
 51
90.0
  0
ARC
  5
6E
330
1F
100
AcDbEntity
  8
0
  6
SLD-Сплошная
 62
     7
370
    25
100
AcDbCircle
 10
253.7718595807
 20
168.4926077518
 30
0.0
 40
2.250000000000028
100
AcDbArc
 50
90.0
 51
180.0
  0
ARC
  5
6F
330
1F
100
AcDbEntity
  8
0
  6
SLD-Сплошная
 62
     7
370
    25
100
AcDbCircle
 10
198.5659989873
 20
-29.4573922482
 30
0.0
 40
200.000000000004
100
AcDbArc
 50
87.332870106
 51
90.0
  0
ARC
  5
70
330
1F
100
AcDbEntity
  8
0
  6
SLD-Сплошная
 62
     7
370
    25
100
AcDbCircle
 10
198.5659989873
 20
328.3426077518
 30
0.0
 40
200.000000000004
100
AcDbArc
 50
270.0
 51
272.667129894
  0
LINE
  5
71
330
1F
100
AcDbEntity
  8
0
  6
SLD-Сплошная
 62
     7
370
    25
100
AcDbLine
 10
198.5659989873
 20
170.5426077518
 30
0.0
 11
181.2218595807
 21
170.5426077518
 31
0.0
  0
LINE
  5
72
330
1F
100
AcDbEntity
  8
0
  6
SLD-Сплошная
 62
     7
370
    25
100
AcDbLine
 10
181.2218595807
 20
128.3426077518
 30
0.0
 11
198.5659989873
 21
128.3426077518
 31
0.0
  0
LINE
  5
73
330
1F
100
AcDbEntity
  8
0
  6
SLD-Сплошная
 62
     7
370
    25
100
AcDbLine
 10
257.1218595807
 20
168.4426077549
 30
0.0
 11
254.9049896224
 21
170.3262180055
 31
0.0
  0
LINE
  5
74
330
1F
100
AcDbEntity
  8
0
  6
SLD-Сплошная
 62
     7
370
    25
100
AcDbLine
 10
254.9049896224
 20
128.5589974982
 30
0.0
 11
257.1218595807
 21
130.4426077488
 31
0.0
  0
LINE
  5
75
330
1F
100
AcDbEntity
  8
0
  6
SLD-Сплошная
 62
     7
370
    25
100
AcDbLine
 10
207.872676644
 20
128.5592607204
 30
0.0
 11
251.5218595807
 21
130.5926077493
 31
0.0
  0
LINE
  5
76
330
1F
100
AcDbEntity
  8
0
  6
SLD-Сплошная
 62
     7
370
    25
100
AcDbLine
 10
251.5218595807
 20
168.2926077544
 30
0.0
 11
207.872676644
 21
170.3259547833
 31
0.0
  0
LINE
  5
77
330
1F
100
AcDbEntity
  8
0
  6
SLD-Сплошная
 62
     7
370
    25
100
AcDbLine
 10
264.7218595807
 20
172.0926077518
 30
0.0
 11
261.7218595807
 21
172.0926077518
 31
0.0
  0
LINE
  5
78
330
1F
100
AcDbEntity
  8
0
  6
SLD-Сплошная
 62
     7
370
    25
100
AcDbLine
 10
257.1218595807
 20
132.1926077518
 30
0.0
 11
261.7218595807
 21
132.1926077518
 31
0.0
  0
LINE
  5
79
330
1F
100
AcDbEntity
  8
0
  6
SLD-Сплошная
 62
     7
370
    25
100
AcDbLine
 10
261.7218595807
 20
166.6926077518
 30
0.0
 11
257.1218595807
 21
166.6926077518
 31
0.0
  0
LINE
  5
7A
330
1F
100
AcDbEntity
  8
0
  6
SLD-Сплошная
 62
     7
370
    25
100
AcDbLine
 10
147.7218595807
 20
120.8926077514
 30
0.0
 11
181.2218595807
 21
120.8926077514
 31
0.0
  0
SPLINE
  5
7B
330
1F
100
AcDbEntity
  8
0
  6
SLD-Сплошная
 62
     7
370
    25
100
AcDbSpline
210
0.0
220
0.0
230
1.0
 70
     8
 71
     3
 72
    12
 73
     8
 74
     0
 42
0.00000001
 43
0.00000001
 40
0.0
 40
0.0
 40
0.0
 40
0.0
 40
0.2118196335737521
 40
0.4455206260377271
 40
0.6725388344502509
 40
0.8950703813895304
 40
1.0
 40
1.0
 40
1.0
 40
1.0
 10
127.3716182023865
 20
150.4575944990625
 30
0.0
 10
127.3449920201607
 20
150.3264411183551
 30
0.0
 10
127.2889891219679
 20
150.0505859707757
 30
0.0
 10
127.2667747195837
 20
149.5777926331469
 30
0.0
 10
127.280587101214
 20
149.070001177178
 30
0.0
 10
127.2961449140602
 20
148.7220366529592
 30
0.0
 10
127.35907827762
 20
148.4971988608341
 30
0.0
 10
127.3792442531033
 20
148.4251532375391
 30
0.0
  0
SPLINE
  5
7C
330
1F
100
AcDbEntity
  8
0
  6
SLD-Сплошная
 62
     7
370
    25
100
AcDbSpline
210
0.0
220
0.0
230
1.0
 70
     8
 71
     3
 72
     9
 73
     5
 74
     0
 42
0.00000001
 43
0.00000001
 40
0.0
 40
0.0
 40
0.0
 40
0.0
 40
0.4922452028803751
 40
1.0
 40
1.0
 40
1.0
 40
1.0
 10
127.346595393361
 20
148.4489942893366
 30
0.0
 10
127.3661052877318
 20
148.392262507017
 30
0.0
 10
127.4057397915454
 20
148.2770114451729
 30
0.0
 10
127.5464583652575
 20
148.1428355339353
 30
0.0
 10
127.6179088961036
 20
148.0747070713466
 30
0.0
  0
SPLINE
  5
7D
330
1F
100
AcDbEntity
  8
0
  6
SLD-Сплошная
 62
     7
370
    25
100
AcDbSpline
210
0.0
220
0.0
230
1.0
 70
     8
 71
     3
 72
     9
 73
     5
 74
     0
 42
0.00000001
 43
0.00000001
 40
0.0
 40
0.0
 40
0.0
 40
0.0
 40
0.5084511408170959
 40
0.9999999999999999
 40
0.9999999999999999
 40
0.9999999999999999
 40
0.9999999999999999
 10
127.6181560751455
 20
150.8106997836557
 30
0.0
 10
127.5465290280563
 20
150.742529605942
 30
0.0
 10
127.4056560093152
 20
150.6084554103289
 30
0.0
 10
127.3659171180908
 20
150.49291150764
 30
0.0
 10
127.3463835114443
 20
150.4361160340878
 30
0.0
  0
LINE
  5
7E
330
1F
100
AcDbEntity
  8
0
  6
SLD-Сплошная
 62
     7
370
    25
100
AcDbLine
 10
140.7856429496
 20
113.5926077519
 30
0.0
 11
146.2856429496
 21
113.5926077519
 31
0.0
  0
LINE
  5
7F
330
1F
100
AcDbEntity
  8
0
  6
SLD-Сплошная
 62
     7
370
    25
100
AcDbLine
 10
146.2856429496
 20
185.2926077519
 30
0.0
 11
140.7856429496
 21
185.2926077519
 31
0.0
  0
SPLINE
  5
80
330
1F
100
AcDbEntity
  8
0
  6
SLD-Сплошная
 62
     7
370
    25
100
AcDbSpline
210
0.0
220
0.0
230
1.0
 70
     8
 71
     3
 72
    12
 73
     8
 74
     0
 42
0.00000001
 43
0.00000001
 40
0.0
 40
0.0
 40
0.0
 40
0.0
 40
0.6590051084131419
 40
0.865573494889191
 40
0.9391916953807625
 40
0.9705238256599553
 40
1.0
 40
1.0
 40
1.0
 40
1.0
 10
127.6405088359459
 20
148.0583406727856
 30
0.0
 10
127.7914323331125
 20
147.964616318328
 30
0.0
 10
127.9896635413925
 20
147.8415136048462
 30
0.0
 10
128.4445019271604
 20
147.7003421765107
 30
0.0
 10
128.6772824723081
 20
147.6630184674241
 30
0.0
 10
128.7987936149432
 20
147.6528403188048
 30
0.0
 10
128.8575691411046
 20
147.6518740600841
 30
0.0
 10
128.8860599478606
 20
147.6514056765189
 30
0.0
  0
SPLINE
  5
81
330
1F
100
AcDbEntity
  8
0
  6
SLD-Сплошная
 62
     7
370
    25
100
AcDbSpline
210
0.0
220
0.0
230
1.0
 70
     8
 71
     3
 72
    12
 73
     8
 74
     0
 42
0.00000001
 43
0.00000001
 40
0.0
 40
0.0
 40
0.0
 40
0.0
 40
0.0294828637851572
 40
0.0608569664599975
 40
0.1345871012314858
 40
0.3408961507717343
 40
1.0
 40
1.0
 40
1.0
 40
1.0
 10
128.8860599478512
 20
151.2338098266717
 30
0.0
 10
128.8575646974231
 20
151.2333331150829
 30
0.0
 10
128.7987463101658
 20
151.2323491122608
 30
0.0
 10
128.6773306533679
 20
151.2220475650927
 30
0.0
 10
128.4450949514328
 20
151.184692054646
 30
0.0
 10
127.9885638850672
 20
151.0437928785524
 30
0.0
 10
127.7909797591043
 20
150.9206498252051
 30
0.0
 10
127.6404984591909
 20
150.8268633094478
 30
0.0
  0
ARC
  5
82
330
1F
100
AcDbEntity
  8
0
  6
SLD-Сплошная
 62
     7
370
    25
100
AcDbCircle
 10
659.3437051154
 20
149.4426077519
 30
0.0
 40
530.0580621657925
100
AcDbArc
 50
182.3246458877
 51
183.7047801103
  0
ARC
  5
83
330
1F
100
AcDbEntity
  8
0
  6
SLD-Сплошная
 62
     7
370
    25
100
AcDbCircle
 10
659.3437051154
 20
149.4426077519
 30
0.0
 40
530.05806216579
100
AcDbArc
 50
176.2952198898
 51
177.6753541123
  0
LINE
  5
84
330
1F
100
AcDbEntity
  8
0
  6
SLD-Сплошная
 62
     7
370
    25
100
AcDbLine
 10
130.3129132526
 20
151.2338098577
 30
0.0
 11
128.8860599479
 21
151.2338098577
 31
0.0
  0
LINE
  5
85
330
1F
100
AcDbEntity
  8
0
  6
SLD-Сплошная
 62
     7
370
    25
100
AcDbLine
 10
128.8860599479
 20
147.6514056456
 30
0.0
 11
130.3113220217
 21
147.6514056456
 31
0.0
  0
ARC
  5
86
330
1F
100
AcDbEntity
  8
0
  6
SLD-Сплошная
 62
     7
370
    25
100
AcDbCircle
 10
285.3851929146
 20
149.4426077514
 30
0.0
 40
159.163333333334
100
AcDbArc
 50
172.1276677748
 51
187.8723322255
  0
LINE
  5
87
330
1F
100
AcDbEntity
  8
0
  6
SLD-Сплошная
 62
     7
370
    25
100
AcDbLine
 10
147.7638985987
 20
180.5686415164
 30
0.0
 11
146.2856429496
 21
180.5557409748
 31
0.0
  0
LINE
  5
88
330
1F
100
AcDbEntity
  8
0
  6
SLD-Сплошная
 62
     7
370
    25
100
AcDbLine
 10
140.7856429496
 20
185.2926077519
 30
0.0
 11
140.3297448647
 21
183.8337338876
 31
0.0
  0
LINE
  5
89
330
1F
100
AcDbEntity
  8
0
  6
SLD-Сплошная
 62
     7
370
    25
100
AcDbLine
 10
140.3297448648
 20
115.051481616
 30
0.0
 11
140.7856429496
 21
113.5926077519
 31
0.0
  0
LINE
  5
8A
330
1F
100
AcDbEntity
  8
0
  6
SLD-Сплошная
 62
     7
370
    25
100
AcDbLine
 10
130.4893394487
 20
183.6926077516
 30
0.0
 11
130.3933418799
 21
183.6926077516
 31
0.0
  0
LINE
  5
8B
330
1F
100
AcDbEntity
  8
0
  6
SLD-Сплошная
 62
     7
370
    25
100
AcDbLine
 10
130.3933418799
 20
115.1926077516
 30
0.0
 11
130.4893394487
 21
115.1926077516
 31
0.0
  0
LINE
  5
8C
330
1F
100
AcDbEntity
  8
0
  6
SLD-Сплошная
 62
     7
370
    25
100
AcDbLine
 10
147.7218595807
 20
119.4966562371
 30
0.0
 11
146.2856429496
 21
119.4966563237
 31
0.0
  0
LINE
  5
8D
330
1F
100
AcDbEntity
  8
0
  6
SLD-Сплошная
 62
     7
370
    25
100
AcDbLine
 10
147.7218595807
 20
119.4426075495
 30
0.0
 11
147.7218595807
 21
119.4966562371
 31
0.0
  0
LINE
  5
8E
330
1F
100
AcDbEntity
  8
0
  6
SLD-Сплошная
 62
     7
370
    25
100
AcDbLine
 10
147.7218595807
 20
171.9551042815
 30
0.0
 11
150.1763218553
 21
171.9551042815
 31
0.0
  0
LINE
  5
8F
330
1F
100
AcDbEntity
  8
0
  6
SLD-Сплошная
 62
     7
370
    25
100
AcDbLine
 10
147.7218595807
 20
171.9551042815
 30
0.0
 11
147.7218595807
 21
123.7506576385
 31
0.0
  0
LINE
  5
90
330
1F
100
AcDbEntity
  8
0
  6
SLD-Сплошная
 62
     7
370
    25
100
AcDbLine
 10
146.2856429496
 20
123.7506576385
 30
0.0
 11
147.7218595807
 21
123.7506576385
 31
0.0
  0
LINE
  5
91
330
1F
100
AcDbEntity
  8
0
  6
SLD-Сплошная
 62
     7
370
    25
100
AcDbLine
 10
150.1763218553
 20
173.1359084928
 30
0.0
 11
146.2856429496
 21
173.1359084928
 31
0.0
  0
SPLINE
  5
92
330
1F
100
AcDbEntity
  8
0
  6
SLD-Сплошная
 62
     7
370
    25
100
AcDbSpline
210
0.0
220
0.0
230
1.0
 70
    24
 71
     3
 72
    10
 73
     6
 74
     0
 42
0.00000001
 43
0.00000001
 40
0.0
 40
0.0
 40
0.0
 40
0.0
 40
0.494802991053864
 40
0.9896059821077281
 40
1.0
 40
1.0
 40
1.0
 40
1.0
 10
181.2218595807206
 20
172.5370334862027
 30
0.0
 10
181.2218595807206
 20
172.9851270842447
 30
0.0
 10
181.2218595807206
 20
173.8813142803287
 30
0.0
 10
181.2218595807206
 20
174.322731076803
 30
0.0
 10
181.2218595807206
 20
174.1869923562531
 30
0.0
 10
181.2218595807206
 20
174.1841996423908
 30
0.0
  0
LINE
  5
93
330
1F
100
AcDbEntity
  8
0
  6
SLD-Сплошная
 62
     7
370
    25
100
AcDbLine
 10
181.2218595807
 20
149.4426077518
 30
0.0
 11
181.2218595807
 21
172.5370334862
 31
0.0
  0
LINE
  5
94
330
1F
100
AcDbEntity
  8
0
  6
SLD-Сплошная
 62
     7
370
    25
100
AcDbLine
 10
147.7218595807
 20
170.1865827807
 30
0.0
 11
150.1763218553
 21
170.1865827807
 31
0.0
  0
LINE
  5
95
330
1F
100
AcDbEntity
  8
0
  6
SLD-Сплошная
 62
     7
370
    25
100
AcDbLine
 10
178.7738595807
 20
167.0931034956
 30
0.0
 11
150.1763218553
 21
167.0931034956
 31
0.0
  0
LINE
  5
96
330
1F
100
AcDbEntity
  8
0
  6
SLD-Сплошная
 62
     7
370
    25
100
AcDbLine
 10
147.7218595807
 20
125.485351516
 30
0.0
 11
181.2218595807
 21
125.485351516
 31
0.0
  0
LINE
  5
97
330
1F
100
AcDbEntity
  8
0
  6
SLD-Сплошная
 62
     7
370
    25
100
AcDbLine
 10
181.2218595807
 20
149.4426077518
 30
0.0
 11
181.2218595807
 21
125.485351516
 31
0.0
  0
LINE
  5
98
330
1F
100
AcDbEntity
  8
0
  6
SLD-Сплошная
 62
     7
370
    25
100
AcDbLine
 10
264.7218595807
 20
160.9486319837
 30
0.0
 11
264.7218595807
 21
150.9892822844
 31
0.0
  0
LINE
  5
99
330
1F
100
AcDbEntity
  8
0
  6
SLD-Сплошная
 62
     7
370
    25
100
AcDbLine
 10
271.7218595807
 20
150.9892822844
 30
0.0
 11
264.7218595807
 21
150.9892822844
 31
0.0
  0
LINE
  5
9A
330
1F
100
AcDbEntity
  8
0
  6
SLD-Сплошная
 62
     7
370
    25
100
AcDbLine
 10
271.7218595807
 20
148.3143790298
 30
0.0
 11
271.7218595807
 21
150.9892822844
 31
0.0
  0
LINE
  5
9B
330
1F
100
AcDbEntity
  8
0
  6
SLD-Сплошная
 62
     7
370
    25
100
AcDbLine
 10
271.7218595807
 20
148.3143790298
 30
0.0
 11
264.7218595807
 21
148.3143790298
 31
0.0
  0
LINE
  5
9C
330
1F
100
AcDbEntity
  8
0
  6
SLD-Сплошная
 62
     7
370
    25
100
AcDbLine
 10
264.7218595807
 20
148.3143790298
 30
0.0
 11
264.7218595807
 21
130.6462561239
 31
0.0
  0
LINE
  5
9D
330
1F
100
AcDbEntity
  8
0
  6
SLD-Сплошная
 62
     7
370
    25
100
AcDbLine
 10
271.7218595807
 20
130.6462561239
 30
0.0
 11
264.7218595807
 21
130.6462561239
 31
0.0
  0
LINE
  5
9E
330
1F
100
AcDbEntity
  8
0
  6
SLD-Сплошная
 62
     7
370
    25
100
AcDbLine
 10
271.7218595807
 20
130.6462561239
 30
0.0
 11
271.7218595807
 21
129.2873678498
 31
0.0
  0
LINE
  5
9F
330
1F
100
AcDbEntity
  8
0
  6
SLD-Сплошная
 62
     7
370
    25
100
AcDbLine
 10
271.7218595807
 20
129.2873678498
 30
0.0
 11
264.7218595807
 21
129.2873678498
 31
0.0
  0
LINE
  5
A0
330
1F
100
AcDbEntity
  8
0
  6
SLD-Сплошная
 62
     7
370
    25
100
AcDbLine
 10
264.7218595807
 20
129.2873678498
 30
0.0
 11
264.7218595807
 21
126.7926077518
 31
0.0
  0
LINE
  5
A1
330
1F
100
AcDbEntity
  8
0
  6
SLD-Сплошная
 62
     7
370
    25
100
AcDbLine
 10
271.7218595807
 20
129.0995815913
 30
0.0
 11
264.7218595807
 21
129.0995815913
 31
0.0
  0
LINE
  5
A2
330
1F
100
AcDbEntity
  8
0
  6
SLD-Сплошная
 62
     7
370
    25
100
AcDbLine
 10
261.7218595807
 20
160.9486319837
 30
0.0
 11
261.7218595807
 21
126.7926077518
 31
0.0
  0
LINE
  5
A3
330
1F
100
AcDbEntity
  8
0
  6
SLD-Сплошная
 62
     7
370
    25
100
AcDbLine
 10
271.7218595807
 20
140.3509325842
 30
0.0
 11
284.7218595807
 21
140.3509325842
 31
0.0
  0
LINE
  5
A4
330
1F
100
AcDbEntity
  8
0
  6
SLD-Сплошная
 62
     7
370
    25
100
AcDbLine
 10
284.7218595807
 20
140.3509325842
 30
0.0
 11
284.7218595807
 21
138.6097025695
 31
0.0
  0
LINE
  5
A5
330
1F
100
AcDbEntity
  8
0
  6
SLD-Сплошная
 62
     7
370
    25
100
AcDbLine
 10
271.7218595807
 20
138.6097025695
 30
0.0
 11
284.7218595807
 21
138.6097025695
 31
0.0
  0
LINE
  5
A6
330
1F
100
AcDbEntity
  8
0
  6
SLD-Сплошная
 62
     7
370
    25
100
AcDbLine
 10
271.7218595807
 20
138.6097025695
 30
0.0
 11
271.7218595807
 21
130.6462561239
 31
0.0
  0
LINE
  5
A7
330
1F
100
AcDbEntity
  8
0
  6
SLD-Сплошная
 62
     7
370
    25
100
AcDbLine
 10
271.7218595807
 20
140.3509325842
 30
0.0
 11
271.7218595807
 21
148.3143790298
 31
0.0
  0
LINE
  5
A8
330
1F
100
AcDbEntity
  8
0
  6
SLD-Сплошная
 62
     7
370
    25
100
AcDbLine
 10
284.7218595807
 20
160.5908122536
 30
0.0
 11
284.7218595807
 21
158.8680889627
 31
0.0
  0
LINE
  5
A9
330
1F
100
AcDbEntity
  8
0
  6
SLD-Сплошная
 62
     7
370
    25
100
AcDbLine
 10
284.7218595807
 20
158.8680889627
 30
0.0
 11
271.7218595807
 21
158.8680889627
 31
0.0
  0
LINE
  5
AA
330
1F
100
AcDbEntity
  8
0
  6
SLD-Сплошная
 62
     7
370
    25
100
AcDbLine
 10
271.7218595807
 20
168.4696189318
 30
0.0
 11
264.7218595807
 21
168.4696189318
 31
0.0
  0
LINE
  5
AB
330
1F
100
AcDbEntity
  8
0
  6
SLD-Сплошная
 62
     7
370
    25
100
AcDbLine
 10
271.7218595807
 20
160.5908122536
 30
0.0
 11
271.7218595807
 21
168.4696189318
 31
0.0
  0
LINE
  5
AC
330
1F
100
AcDbEntity
  8
0
  6
SLD-Сплошная
 62
     7
370
    25
100
AcDbLine
 10
284.7218595807
 20
160.5908122536
 30
0.0
 11
271.7218595807
 21
160.5908122536
 31
0.0
  0
LINE
  5
AD
330
1F
100
AcDbEntity
  8
0
  6
SLD-Сплошная
 62
     7
370
    25
100
AcDbLine
 10
271.7218595807
 20
158.8680889627
 30
0.0
 11
271.7218595807
 21
150.9892822844
 31
0.0
  0
LINE
  5
AE
330
1F
100
AcDbEntity
  8
0
  6
SLD-Сплошная
 62
     7
370
    25
100
AcDbLine
 10
251.5218595807
 20
149.4426077518
 30
0.0
 11
251.5218595807
 21
130.3926077518
 31
0.0
  0
LINE
  5
AF
330
1F
100
AcDbEntity
  8
0
  6
SLD-Сплошная
 62
     7
370
    25
100
AcDbLine
 10
251.5218595807
 20
168.4926077518
 30
0.0
 11
251.5218595807
 21
149.4426077518
 31
0.0
  0
LINE
  5
B0
330
1F
100
AcDbEntity
  8
0
  6
SLD-Сплошная
 62
     7
370
    25
100
AcDbLine
 10
257.1218595807
 20
168.4426077518
 30
0.0
 11
257.1218595807
 21
149.4426077518
 31
0.0
  0
LINE
  5
B1
330
1F
100
AcDbEntity
  8
0
  6
SLD-Сплошная
 62
     7
370
    25
100
AcDbLine
 10
257.1218595807
 20
149.4426077518
 30
0.0
 11
257.1218595807
 21
130.4426077518
 31
0.0
  0
LINE
  5
B2
330
1F
100
AcDbEntity
  8
0
  6
SLD-Сплошная
 62
     7
370
    25
100
AcDbLine
 10
264.7218595807
 20
172.0926077518
 30
0.0
 11
264.7218595807
 21
169.7856339124
 31
0.0
  0
LINE
  5
B3
330
1F
100
AcDbEntity
  8
0
  6
SLD-Сплошная
 62
     7
370
    25
100
AcDbLine
 10
271.7218595807
 20
169.7856339124
 30
0.0
 11
264.7218595807
 21
169.7856339124
 31
0.0
  0
LINE
  5
B4
330
1F
100
AcDbEntity
  8
0
  6
SLD-Сплошная
 62
     7
370
    25
100
AcDbLine
 10
271.7218595807
 20
168.4696189318
 30
0.0
 11
271.7218595807
 21
169.7856339124
 31
0.0
  0
LINE
  5
B5
330
1F
100
AcDbEntity
  8
0
  6
SLD-Сплошная
 62
     7
370
    25
100
AcDbLine
 10
264.7218595807
 20
168.4696189318
 30
0.0
 11
264.7218595807
 21
160.9486319837
 31
0.0
  0
LINE
  5
B6
330
1F
100
AcDbEntity
  8
0
  6
SLD-Сплошная
 62
     7
370
    25
100
AcDbLine
 10
261.7218595807
 20
172.0926077518
 30
0.0
 11
261.7218595807
 21
160.9486319837
 31
0.0
  0
LINE
  5
B7
330
1F
100
AcDbEntity
  8
0
  6
SLD-Сплошная
 62
     7
370
    25
100
AcDbLine
 10
271.7218595807
 20
158.448627603
 30
0.0
 11
284.7218595807
 21
158.448627603
 31
0.0
  0
LINE
  5
B8
330
1F
100
AcDbEntity
  8
0
  6
SLD-Сплошная
 62
     7
370
    25
100
AcDbLine
 10
284.7218595807
 20
140.7571598242
 30
0.0
 11
284.7218595807
 21
158.448627603
 31
0.0
  0
LINE
  5
B9
330
1F
100
AcDbEntity
  8
0
  6
SLD-Сплошная
 62
     7
370
    25
100
AcDbLine
 10
284.7218595807
 20
140.7571598242
 30
0.0
 11
271.7218595807
 21
140.7571598242
 31
0.0
  0
LINE
  5
BA
330
1F
100
AcDbEntity
  8
0
  6
SLD-Сплошная
 62
     7
370
    25
100
AcDbLine
 10
284.7218595807
 20
140.7571598242
 30
0.0
 11
284.7218595807
 21
140.3509325842
 31
0.0
  0
LINE
  5
BB
330
1F
100
AcDbEntity
  8
0
  6
SLD-Сплошная
 62
     7
370
    25
100
AcDbLine
 10
284.7218595807
 20
158.8680889627
 30
0.0
 11
284.7218595807
 21
158.448627603
 31
0.0
  0
LINE
  5
BC
330
1F
100
AcDbEntity
  8
0
  6
SLD-Сплошная
 62
     7
370
    25
100
AcDbLine
 10
155.9688595807
 20
189.9596077514
 30
0.0
 11
155.1688595807
 21
189.9596077514
 31
0.0
  0
ARC
  5
BD
330
1F
100
AcDbEntity
  8
0
  6
SLD-Сплошная
 62
     7
370
    25
100
AcDbCircle
 10
155.1688595807
 20
187.8996077514
 30
0.0
 40
2.059999999999633
100
AcDbArc
 50
90.0
 51
270.0
  0
LINE
  5
BE
330
1F
100
AcDbEntity
  8
0
  6
SLD-Сплошная
 62
     7
370
    25
100
AcDbLine
 10
155.1688595807
 20
185.8396077514
 30
0.0
 11
155.9688595807
 21
185.8396077514
 31
0.0
  0
ARC
  5
BF
330
1F
100
AcDbEntity
  8
0
  6
SLD-Сплошная
 62
     7
370
    25
100
AcDbCircle
 10
155.9688595807
 20
187.8996077514
 30
0.0
 40
2.059999999999718
100
AcDbArc
 50
270.0
 51
90.0
  0
ARC
  5
C0
330
1F
100
AcDbEntity
  8
0
  6
SLD-Сплошная
 62
     7
370
    25
100
AcDbCircle
 10
155.6763218553
 20
187.8055782611
 30
0.0
 40
5.499999999998721
100
AcDbArc
 50
90.0
 51
180.0
  0
ARC
  5
C1
330
1F
100
AcDbEntity
  8
0
  6
SLD-Сплошная
 62
     7
370
    25
100
AcDbCircle
 10
155.6763218553
 20
187.8055782611
 30
0.0
 40
5.499999999998807
100
AcDbArc
 50
48.0657537658
 51
90.0
  0
LINE
  5
C2
330
1F
100
AcDbEntity
  8
0
  6
SLD-Сплошная
 62
     7
370
    25
100
AcDbLine
 10
178.7738595807
 20
174.4497548321
 30
0.0
 11
159.3518471058
 21
191.8970955999
 31
0.0
  0
LINE
  5
C3
330
1F
100
AcDbEntity
  8
0
  6
SLD-Сплошная
 62
     7
370
    25
100
AcDbLine
 10
150.1763218553
 20
167.0931034956
 30
0.0
 11
150.1763218553
 21
187.8055782611
 31
0.0
  0
LINE
  5
C4
330
1F
100
AcDbEntity
  8
0
  6
SLD-Сплошная
 62
     7
370
    25
100
AcDbLine
 10
178.7738595807
 20
167.0931034956
 30
0.0
 11
178.7738595807
 21
174.4497548321
 31
0.0
  0
LINE
  5
C5
330
1F
100
AcDbEntity
  8
0
  6
SLD-Сплошная
 62
     7
370
    25
100
AcDbLine
 10
284.7218595807
 20
130.0284166822
 30
0.0
 11
271.7218595807
 21
130.0284166822
 31
0.0
  0
LINE
  5
C6
330
1F
100
AcDbEntity
  8
0
  6
SLD-Сплошная
 62
     7
370
    25
100
AcDbLine
 10
284.7218595807
 20
130.0284166822
 30
0.0
 11
284.7218595807
 21
138.6097025695
 31
0.0
  0
LINE
  5
C7
330
1F
100
AcDbEntity
  8
0
  6
SLD-Сплошная
 62
     7
370
    25
100
AcDbLine
 10
271.7218595807
 20
168.8753055452
 30
0.0
 11
284.7218595807
 21
168.8753055452
 31
0.0
  0
LINE
  5
C8
330
1F
100
AcDbEntity
  8
0
  6
SLD-Сплошная
 62
     7
370
    25
100
AcDbLine
 10
284.7218595807
 20
160.5908122536
 30
0.0
 11
284.7218595807
 21
168.8753055452
 31
0.0
  0
LINE
  5
C9
330
1F
100
AcDbEntity
  8
0
  6
SLD-Сплошная
 62
     7
370
    25
100
AcDbLine
 10
284.7218595807
 20
129.2027280824
 30
0.0
 11
271.7218595807
 21
129.2027280824
 31
0.0
  0
LINE
  5
CA
330
1F
100
AcDbEntity
  8
0
  6
SLD-Сплошная
 62
     7
370
    25
100
AcDbLine
 10
284.7218595807
 20
129.1842213587
 30
0.0
 11
271.7218595807
 21
129.1842213587
 31
0.0
  0
LINE
  5
CB
330
1F
100
AcDbEntity
  8
0
  6
SLD-Сплошная
 62
     7
370
    25
100
AcDbLine
 10
271.7218595807
 20
129.1842213587
 30
0.0
 11
271.7218595807
 21
129.0995815913
 31
0.0
  0
LINE
  5
CC
330
1F
100
AcDbEntity
  8
0
  6
SLD-Сплошная
 62
     7
370
    25
100
AcDbLine
 10
271.7218595807
 20
129.2873678498
 30
0.0
 11
271.7218595807
 21
129.2027280824
 31
0.0
  0
LINE
  5
CD
330
1F
100
AcDbEntity
  8
0
  6
SLD-Сплошная
 62
     7
370
    25
100
AcDbLine
 10
284.7218595807
 20
129.2027280824
 30
0.0
 11
284.7218595807
 21
129.1842213587
 31
0.0
  0
LINE
  5
CE
330
1F
100
AcDbEntity
  8
0
  6
SLD-Сплошная
 62
     7
370
    25
100
AcDbLine
 10
147.7218595807
 20
121.1468091636
 30
0.0
 11
146.2856429496
 21
121.1468091636
 31
0.0
  0
LINE
  5
CF
330
1F
100
AcDbEntity
  8
0
  6
SLD-Сплошная
 62
     7
370
    25
100
AcDbLine
 10
181.2218595807
 20
120.8926077514
 30
0.0
 11
181.2218595807
 21
125.485351516
 31
0.0
  0
LINE
  5
D0
330
1F
100
AcDbEntity
  8
0
  6
SLD-Сплошная
 62
     7
370
    25
100
AcDbLine
 10
147.7218595807
 20
119.4966562371
 30
0.0
 11
147.7218595807
 21
121.1468091636
 31
0.0
  0
LINE
  5
D1
330
1F
100
AcDbEntity
  8
0
  6
SLD-Сплошная
 62
     7
370
    25
100
AcDbLine
 10
284.7218595807
 20
129.2027280824
 30
0.0
 11
284.7218595807
 21
130.0284166822
 31
0.0
  0
LINE
  5
D2
330
1F
100
AcDbEntity
  8
0
  6
SLD-Сплошная
 62
     7
370
    25
100
AcDbLine
 10
284.7218595807
 20
169.700994145
 30
0.0
 11
271.7218595807
 21
169.700994145
 31
0.0
  0
LINE
  5
D3
330
1F
100
AcDbEntity
  8
0
  6
SLD-Сплошная
 62
     7
370
    25
100
AcDbLine
 10
284.7218595807
 20
168.8753055452
 30
0.0
 11
284.7218595807
 21
169.700994145
 31
0.0
  0
LINE
  5
D4
330
1F
100
AcDbEntity
  8
0
  6
SLD-Сплошная
 62
     7
370
    25
100
AcDbLine
 10
155.1688595807
 20
189.6496077514
 30
0.0
 11
155.9688595807
 21
189.6496077514
 31
0.0
  0
ARC
  5
D5
330
1F
100
AcDbEntity
  8
0
  6
SLD-Сплошная
 62
     7
370
    25
100
AcDbCircle
 10
155.1688595807
 20
187.8996077514
 30
0.0
 40
1.749999999999598
100
AcDbArc
 50
225.5729961225
 51
270.0
  0
ARC
  5
D6
330
1F
100
AcDbEntity
  8
0
  6
SLD-Сплошная
 62
     7
370
    25
100
AcDbCircle
 10
155.1688595807
 20
187.8996077514
 30
0.0
 40
1.749999999999633
100
AcDbArc
 50
90.0
 51
134.4270038694
  0
LINE
  5
D7
330
1F
100
AcDbEntity
  8
0
  6
SLD-Сплошная
 62
     7
370
    25
100
AcDbLine
 10
155.9688595807
 20
186.1496077514
 30
0.0
 11
155.1688595807
 21
186.1496077514
 31
0.0
  0
ARC
  5
D8
330
1F
100
AcDbEntity
  8
0
  6
SLD-Сплошная
 62
     7
370
    25
100
AcDbCircle
 10
155.9688595807
 20
187.8996077514
 30
0.0
 40
1.749999999999773
100
AcDbArc
 50
45.5729961429
 51
90.0
  0
ARC
  5
D9
330
1F
100
AcDbEntity
  8
0
  6
SLD-Сплошная
 62
     7
370
    25
100
AcDbCircle
 10
155.9688595807
 20
187.8996077514
 30
0.0
 40
1.749999999999664
100
AcDbArc
 50
270.0
 51
314.4270038958
  0
LINE
  5
DA
330
1F
100
AcDbEntity
  8
0
  6
SLD-Сплошная
 62
     7
370
    25
100
AcDbLine
 10
142.2856429456
 20
148.3991971613
 30
0.0
 11
142.2856429456
 21
150.486018342
 31
0.0
  0
SPLINE
  5
DB
330
1F
100
AcDbEntity
  8
0
  6
SLD-Сплошная
 62
     7
370
    25
100
AcDbSpline
210
0.0
220
0.0
230
1.0
 70
     8
 71
     3
 72
    13
 73
     9
 74
     0
 42
0.00000001
 43
0.00000001
 40
0.0
 40
0.0
 40
0.0
 40
0.0
 40
0.1950914733907244
 40
0.378619101466115
 40
0.57569139428584
 40
0.7786560771682199
 40
0.8854831095842439
 40
1.0
 40
1.0
 40
1.0
 40
1.0
 10
127.3643797782189
 20
150.4392490853846
 30
0.0
 10
127.3621105474876
 20
150.446856123861
 30
0.0
 10
127.3577065923296
 20
150.4616193014755
 30
0.0
 10
127.4770090428341
 20
150.4833983948253
 30
0.0
 10
127.6754359616401
 20
150.4912185837741
 30
0.0
 10
127.9292687327403
 20
150.4922090856942
 30
0.0
 10
128.1770702499417
 20
150.4895747979304
 30
0.0
 10
128.3133922184306
 20
150.4872309701287
 30
0.0
 10
128.3839212292431
 20
150.4860183419792
 30
0.0
  0
SPLINE
  5
DC
330
1F
100
AcDbEntity
  8
0
  6
SLD-Сплошная
 62
     7
370
    25
100
AcDbSpline
210
0.0
220
0.0
230
1.0
 70
     8
 71
     3
 72
    13
 73
     9
 74
     0
 42
0.00000001
 43
0.00000001
 40
0.0
 40
0.0
 40
0.0
 40
0.0
 40
0.1148087965366127
 40
0.2218575838973526
 40
0.4251566322959308
 40
0.622344345165616
 40
0.8054472731050163
 40
0.9999999999999999
 40
0.9999999999999999
 40
0.9999999999999999
 40
0.9999999999999999
 10
128.3839212292449
 20
148.3991971613134
 30
0.0
 10
128.3132140927069
 20
148.397983071908
 30
0.0
 10
128.176578965871
 20
148.3956369542738
 30
0.0
 10
127.9283663592723
 20
148.3930261087843
 30
0.0
 10
127.6745178743873
 20
148.3940753662014
 30
0.0
 10
127.476528918181
 20
148.4019104156505
 30
0.0
 10
127.3575608502658
 20
148.4237111743526
 30
0.0
 10
127.362159919975
 20
148.4383041063826
 30
0.0
 10
127.3645291723393
 20
148.4458217873269
 30
0.0
  0
LINE
  5
DD
330
1F
100
AcDbEntity
  8
0
  6
SLD-Сплошная
 62
     7
370
    25
100
AcDbLine
 10
142.2856429456
 20
148.164269565
 30
0.0
 11
142.2856429456
 21
148.3991971613
 31
0.0
  0
LINE
  5
DE
330
1F
100
AcDbEntity
  8
0
  6
SLD-Сплошная
 62
     7
370
    25
100
AcDbLine
 10
142.2856429456
 20
150.486018342
 30
0.0
 11
142.2856429456
 21
150.7209459383
 31
0.0
  0
LINE
  5
DF
330
1F
100
AcDbEntity
  8
0
  6
SLD-Сплошная
 62
     7
370
    25
100
AcDbLine
 10
142.2856429456
 20
147.9911711916
 30
0.0
 11
140.7856429496
 21
147.9911711916
 31
0.0
  0
LWPOLYLINE
  5
E0
330
1F
100
AcDbEntity
  8
0
  6
SLD-Сплошная
 62
     7
370
    25
100
AcDbPolyline
 90
        9
 70
   128
 43
0.0
 10
140.285642947
 20
147.780541097
 10
140.3481077673
 20
147.8068712622
 10
140.4105826665
 20
147.8332010255
 10
140.4730676445
 20
147.8595303868
 10
140.5355627011
 20
147.8858593461
 10
140.5980678361
 20
147.9121879032
 10
140.6605830495
 20
147.9385160582
 10
140.723108341
 20
147.9648438109
 10
140.7856429496
 20
147.9911711916
  0
LINE
  5
E1
330
1F
100
AcDbEntity
  8
0
  6
SLD-Сплошная
 62
     7
370
    25
100
AcDbLine
 10
140.285642947
 20
147.780541097
 30
0.0
 11
130.3933418799
 21
147.7805410965
 31
0.0
  0
ARC
  5
E2
330
1F
100
AcDbEntity
  8
0
  6
SLD-Сплошная
 62
     7
370
    25
100
AcDbCircle
 10
141.2975350921
 20
142.4208419937
 30
0.0
 40
12.15021827294753
100
AcDbArc
 50
153.8246638308
 51
154.4792064459
  0
LINE
  5
E3
330
1F
100
AcDbEntity
  8
0
  6
SLD-Сплошная
 62
     7
370
    25
100
AcDbLine
 10
142.2856429456
 20
147.9911711916
 30
0.0
 11
142.2856429456
 21
148.164269565
 31
0.0
  0
LINE
  5
E4
330
1F
100
AcDbEntity
  8
0
  6
SLD-Сплошная
 62
     7
370
    25
100
AcDbLine
 10
140.7856429496
 20
150.8940443116
 30
0.0
 11
142.2856429456
 21
150.8940443116
 31
0.0
  0
SPLINE
  5
E5
330
1F
100
AcDbEntity
  8
0
  6
SLD-Сплошная
 62
     7
370
    25
100
AcDbSpline
210
0.0
220
0.0
230
1.0
 70
     8
 71
     3
 72
     8
 73
     4
 74
     0
 42
0.00000001
 43
0.00000001
 40
0.0
 40
0.0
 40
0.0
 40
0.0
 40
1.0
 40
1.0
 40
1.0
 40
1.0
 10
130.3933418799281
 20
151.1046744050878
 30
0.0
 10
130.3731895778226
 20
151.1456754373393
 30
0.0
 10
130.3533209078538
 20
151.1866788127708
 30
0.0
 10
130.3337359033603
 20
151.2276844613623
 30
0.0
  0
LINE
  5
E6
330
1F
100
AcDbEntity
  8
0
  6
SLD-Сплошная
 62
     7
370
    25
100
AcDbLine
 10
140.285642947
 20
151.1046744063
 30
0.0
 11
130.3933418799
 21
151.1046744051
 31
0.0
  0
LWPOLYLINE
  5
E7
330
1F
100
AcDbEntity
  8
0
  6
SLD-Сплошная
 62
     7
370
    25
100
AcDbPolyline
 90
        9
 70
   128
 43
0.0
 10
140.7856429496
 20
150.8940443116
 10
140.7231075801
 20
150.920371662
 10
140.6605822885
 20
150.9466994147
 10
140.5980670751
 20
150.9730275697
 10
140.53556194
 20
150.9993561269
 10
140.4730668834
 20
151.0256850861
 10
140.4105819055
 20
151.0520144474
 10
140.3481070063
 20
151.0783442108
 10
140.285642947
 20
151.1046744063
  0
LINE
  5
E8
330
1F
100
AcDbEntity
  8
0
  6
SLD-Сплошная
 62
     7
370
    25
100
AcDbLine
 10
142.2856429456
 20
150.7209459383
 30
0.0
 11
142.2856429456
 21
150.8940443116
 31
0.0
  0
LINE
  5
E9
330
1F
100
AcDbEntity
  8
0
  6
SLD-Сплошная
 62
     7
370
    25
100
AcDbLine
 10
146.2856429496
 20
149.4426077519
 30
0.0
 11
146.2856429496
 21
113.5926077519
 31
0.0
  0
LINE
  5
EA
330
1F
100
AcDbEntity
  8
0
  6
SLD-Сплошная
 62
     7
370
    25
100
AcDbLine
 10
146.2856429496
 20
185.2926077519
 30
0.0
 11
146.2856429496
 21
149.4426077519
 31
0.0
  0
LINE
  5
EB
330
1F
100
AcDbEntity
  8
0
  6
SLD-Сплошная
 62
     7
370
    25
100
AcDbLine
 10
140.7856429496
 20
115.051481616
 30
0.0
 11
140.7856429496
 21
113.5926077519
 31
0.0
  0
LINE
  5
EC
330
1F
100
AcDbEntity
  8
0
  6
SLD-Сплошная
 62
     7
370
    25
100
AcDbLine
 10
140.7856429496
 20
115.051481616
 30
0.0
 11
130.4993737976
 21
115.051481616
 31
0.0
  0
LINE
  5
ED
330
1F
100
AcDbEntity
  8
0
  6
SLD-Сплошная
 62
     7
370
    25
100
AcDbLine
 10
130.4993737976
 20
115.051481616
 30
0.0
 11
130.4993737976
 21
115.6695156047
 31
0.0
  0
LINE
  5
EE
330
1F
100
AcDbEntity
  8
0
  6
SLD-Сплошная
 62
     7
370
    25
100
AcDbLine
 10
140.7856429496
 20
115.6695156047
 30
0.0
 11
130.4993737976
 21
115.6695156047
 31
0.0
  0
LINE
  5
EF
330
1F
100
AcDbEntity
  8
0
  6
SLD-Сплошная
 62
     7
370
    25
100
AcDbLine
 10
140.7856429496
 20
127.5696888996
 30
0.0
 11
140.7856429496
 21
115.6695156047
 31
0.0
  0
LINE
  5
F0
330
1F
100
AcDbEntity
  8
0
  6
SLD-Сплошная
 62
     7
370
    25
100
AcDbLine
 10
140.7856429496
 20
127.5696888996
 30
0.0
 11
130.4993737976
 21
127.5696888996
 31
0.0
  0
LINE
  5
F1
330
1F
100
AcDbEntity
  8
0
  6
SLD-Сплошная
 62
     7
370
    25
100
AcDbLine
 10
130.4993737976
 20
127.5696888996
 30
0.0
 11
130.4993737976
 21
129.1877228884
 31
0.0
  0
LINE
  5
F2
330
1F
100
AcDbEntity
  8
0
  6
SLD-Сплошная
 62
     7
370
    25
100
AcDbLine
 10
140.7856429496
 20
129.1877228884
 30
0.0
 11
130.4993737976
 21
129.1877228884
 31
0.0
  0
LINE
  5
F3
330
1F
100
AcDbEntity
  8
0
  6
SLD-Сплошная
 62
     7
370
    25
100
AcDbLine
 10
140.7856429496
 20
147.9911711916
 30
0.0
 11
140.7856429496
 21
129.1877228884
 31
0.0
  0
LINE
  5
F4
330
1F
100
AcDbEntity
  8
0
  6
SLD-Сплошная
 62
     7
370
    25
100
AcDbLine
 10
140.7856429496
 20
169.697492615
 30
0.0
 11
140.7856429496
 21
150.8940443116
 31
0.0
  0
LINE
  5
F5
330
1F
100
AcDbEntity
  8
0
  6
SLD-Сплошная
 62
     7
370
    25
100
AcDbLine
 10
140.7856429496
 20
169.697492615
 30
0.0
 11
130.4993737976
 21
169.697492615
 31
0.0
  0
LINE
  5
F6
330
1F
100
AcDbEntity
  8
0
  6
SLD-Сплошная
 62
     7
370
    25
100
AcDbLine
 10
130.4993737976
 20
169.697492615
 30
0.0
 11
130.4993737976
 21
171.3155266038
 31
0.0
  0
LINE
  5
F7
330
1F
100
AcDbEntity
  8
0
  6
SLD-Сплошная
 62
     7
370
    25
100
AcDbLine
 10
140.7856429496
 20
171.3155266038
 30
0.0
 11
130.4993737976
 21
171.3155266038
 31
0.0
  0
LINE
  5
F8
330
1F
100
AcDbEntity
  8
0
  6
SLD-Сплошная
 62
     7
370
    25
100
AcDbLine
 10
140.7856429496
 20
183.2156998989
 30
0.0
 11
140.7856429496
 21
171.3155266038
 31
0.0
  0
LINE
  5
F9
330
1F
100
AcDbEntity
  8
0
  6
SLD-Сплошная
 62
     7
370
    25
100
AcDbLine
 10
140.7856429496
 20
183.2156998989
 30
0.0
 11
130.4993737976
 21
183.2156998989
 31
0.0
  0
LINE
  5
FA
330
1F
100
AcDbEntity
  8
0
  6
SLD-Сплошная
 62
     7
370
    25
100
AcDbLine
 10
130.4993737976
 20
183.2156998989
 30
0.0
 11
130.4993737976
 21
183.8337338876
 31
0.0
  0
LINE
  5
FB
330
1F
100
AcDbEntity
  8
0
  6
SLD-Сплошная
 62
     7
370
    25
100
AcDbLine
 10
140.7856429496
 20
183.8337338876
 30
0.0
 11
130.4993737976
 21
183.8337338876
 31
0.0
  0
LINE
  5
FC
330
1F
100
AcDbEntity
  8
0
  6
SLD-Сплошная
 62
     7
370
    25
100
AcDbLine
 10
140.7856429496
 20
185.2926077519
 30
0.0
 11
140.7856429496
 21
183.8337338876
 31
0.0
  0
LINE
  5
FD
330
1F
100
AcDbEntity
  8
0
  6
SLD-Сплошная
 62
     7
370
    25
100
AcDbLine
 10
140.2856429471
 20
168.7566530122
 30
0.0
 11
140.7856429496
 21
169.697492615
 31
0.0
  0
LINE
  5
FE
330
1F
100
AcDbEntity
  8
0
  6
SLD-Сплошная
 62
     7
370
    25
100
AcDbLine
 10
140.285642947
 20
151.1046744063
 30
0.0
 11
140.2856429471
 21
168.7566530122
 31
0.0
  0
LINE
  5
FF
330
1F
100
AcDbEntity
  8
0
  6
SLD-Сплошная
 62
     7
370
    25
100
AcDbLine
 10
140.7856429496
 20
129.1877228884
 30
0.0
 11
140.2856429471
 21
130.1285624912
 31
0.0
  0
LINE
  5
100
330
1F
100
AcDbEntity
  8
0
  6
SLD-Сплошная
 62
     7
370
    25
100
AcDbLine
 10
140.2856429471
 20
130.1285624912
 30
0.0
 11
140.285642947
 21
147.780541097
 31
0.0
  0
LINE
  5
101
330
1F
100
AcDbEntity
  8
0
  6
SLD-Сплошная
 62
     7
370
    25
100
AcDbLine
 10
130.3933418799
 20
182.3114234321
 30
0.0
 11
130.3933418799
 21
183.6926077518
 31
0.0
  0
ARC
  5
102
330
1F
100
AcDbEntity
  8
0
  6
SLD-Сплошная
 62
     7
370
    25
100
AcDbCircle
 10
609.0591230698
 20
149.7362581029
 30
0.0
 40
479.7729374176438
100
AcDbArc
 50
175.9245516468
 51
176.1067906028
  0
ARC
  5
103
330
1F
100
AcDbEntity
  8
0
  6
SLD-Сплошная
 62
     7
370
    25
100
AcDbCircle
 10
609.0591357472
 20
149.1182232229
 30
0.0
 40
479.772950126265
100
AcDbArc
 50
175.9245516482
 51
176.1067905994
  0
LINE
  5
104
330
1F
100
AcDbEntity
  8
0
  6
SLD-Сплошная
 62
     7
370
    25
100
AcDbLine
 10
130.3933418799
 20
181.6933894438
 30
0.0
 11
130.3933418799
 21
181.1560670348
 31
0.0
  0
LINE
  5
105
330
1F
100
AcDbEntity
  8
0
  6
SLD-Сплошная
 62
     7
370
    25
100
AcDbLine
 10
130.3933418799
 20
170.3746870009
 30
0.0
 11
130.3933418799
 21
181.1560670348
 31
0.0
  0
ARC
  5
106
330
1F
100
AcDbEntity
  8
0
  6
SLD-Сплошная
 62
     7
370
    25
100
AcDbCircle
 10
314.6881219387
 20
150.0811981546
 30
0.0
 40
185.4087151308559
100
AcDbArc
 50
173.4236484751
 51
173.716231547
  0
ARC
  5
107
330
1F
100
AcDbEntity
  8
0
  6
SLD-Сплошная
 62
     7
370
    25
100
AcDbCircle
 10
314.6881246743
 20
148.4631638546
 30
0.0
 40
185.4087178840486
100
AcDbArc
 50
173.4236484764
 51
173.7162315439
  0
LINE
  5
108
330
1F
100
AcDbEntity
  8
0
  6
SLD-Сплошная
 62
     7
370
    25
100
AcDbLine
 10
130.3933418799
 20
151.1046744051
 30
0.0
 11
130.3933418799
 21
168.756653012
 31
0.0
  0
SPLINE
  5
109
330
1F
100
AcDbEntity
  8
0
  6
SLD-Сплошная
 62
     7
370
    25
100
AcDbSpline
210
0.0
220
0.0
230
1.0
 70
     8
 71
     3
 72
    10
 73
     6
 74
     0
 42
0.00000001
 43
0.00000001
 40
0.0
 40
0.0
 40
0.0
 40
0.0
 40
0.5
 40
0.5
 40
1.0
 40
1.0
 40
1.0
 40
1.0
 10
130.2750957154731
 20
151.3648080089369
 30
0.0
 10
130.2831604999746
 20
151.3348549101304
 30
0.0
 10
130.2912685230445
 20
151.3041801186019
 30
0.0
 10
130.3077949825714
 20
151.2554260163179
 30
0.0
 10
130.3161718814574
 20
151.2370410094316
 30
0.0
 10
130.3247766474297
 20
151.2359370797923
 30
0.0
  0
ARC
  5
10A
330
1F
100
AcDbEntity
  8
0
  6
SLD-Сплошная
 62
     7
370
    25
100
AcDbCircle
 10
135.6066226033
 20
147.3685319926
 30
0.0
 40
6.662987389620652
100
AcDbArc
 50
143.1464004214
 51
144.5415908413
  0
ARC
  5
10B
330
1F
100
AcDbEntity
  8
0
  6
SLD-Сплошная
 62
     7
370
    25
100
AcDbCircle
 10
135.6066225677
 20
151.5166834847
 30
0.0
 40
6.662987345591332
100
AcDbArc
 50
215.458409145
 51
216.8535995832
  0
SPLINE
  5
10C
330
1F
100
AcDbEntity
  8
0
  6
SLD-Сплошная
 62
     7
370
    25
100
AcDbSpline
210
0.0
220
0.0
230
1.0
 70
     8
 71
     3
 72
    10
 73
     6
 74
     0
 42
0.00000001
 43
0.00000001
 40
0.0
 40
0.0
 40
0.0
 40
0.0
 40
0.5
 40
0.5
 40
1.0
 40
1.0
 40
1.0
 40
1.0
 10
130.3249551323397
 20
147.6492986955282
 30
0.0
 10
130.3163207740714
 20
147.6484453209434
 30
0.0
 10
130.3079112873293
 20
147.6300830012942
 30
0.0
 10
130.291326966697
 20
147.5812568705212
 30
0.0
 10
130.2831704053812
 20
147.5503973776898
 30
0.0
 10
130.2750957154643
 20
147.5204074943582
 30
0.0
  0
SPLINE
  5
10D
330
1F
100
AcDbEntity
  8
0
  6
SLD-Сплошная
 62
     7
370
    25
100
AcDbSpline
210
0.0
220
0.0
230
1.0
 70
     8
 71
     3
 72
    14
 73
    10
 74
     0
 42
0.00000001
 43
0.00000001
 40
0.0
 40
0.0
 40
0.0
 40
0.0
 40
0.0000381661268658
 40
0.0000381661268658
 40
0.0000381661268658
 40
0.0000763301799645
 40
0.0000763301799645
 40
0.0000763301799645
 40
0.0000874201025539
 40
0.0000874201025539
 40
0.0000874201025539
 40
0.0000874201025539
 10
130.3249551323396
 20
147.6492986955247
 30
0.0
 10
130.3257500002001
 20
147.6493719410975
 30
0.0
 10
130.3265447237214
 20
147.6496183296759
 30
0.0
 10
130.327339108159
 20
147.6500021762849
 30
0.0
 10
130.3281334664925
 20
147.6503860102803
 30
0.0
 10
130.3289275797823
 20
147.6509073528112
 30
0.0
 10
130.3297214845377
 20
147.6515253437615
 30
0.0
 10
130.3299521693979
 20
147.6517049133572
 30
0.0
 10
130.3301828410975
 20
147.6518926104564
 30
0.0
 10
130.3304135038399
 20
147.6520873452026
 30
0.0
  0
SPLINE
  5
10E
330
1F
100
AcDbEntity
  8
0
  6
SLD-Сплошная
 62
     7
370
    25
100
AcDbSpline
210
0.0
220
0.0
230
1.0
 70
     8
 71
     3
 72
    10
 73
     6
 74
     0
 42
0.00000001
 43
0.00000001
 40
0.0
 40
0.0
 40
0.0
 40
0.0
 40
0.5
 40
0.5
 40
1.0
 40
1.0
 40
1.0
 40
1.0
 10
130.3304134954782
 20
147.6520915323022
 30
0.0
 10
130.3308196687298
 20
147.6524323522079
 30
0.0
 10
130.3312236991752
 20
147.6529010889479
 30
0.0
 10
130.3320278531161
 20
147.6540793935608
 30
0.0
 10
130.3324278997115
 20
147.6547916348757
 30
0.0
 10
130.3328259417151
 20
147.6556254016514
 30
0.0
  0
LINE
  5
10F
330
1F
100
AcDbEntity
  8
0
  6
SLD-Сплошная
 62
     7
370
    25
100
AcDbLine
 10
130.3933418799
 20
147.7805410965
 30
0.0
 11
130.3933418799
 21
130.1285624911
 31
0.0
  0
ARC
  5
110
330
1F
100
AcDbEntity
  8
0
  6
SLD-Сплошная
 62
     7
370
    25
100
AcDbCircle
 10
314.6881260946
 20
150.4220518103
 30
0.0
 40
185.4087193135175
100
AcDbArc
 50
186.2837684577
 51
186.5763515229
  0
ARC
  5
111
330
1F
100
AcDbEntity
  8
0
  6
SLD-Сплошная
 62
     7
370
    25
100
AcDbCircle
 10
314.6881238098
 20
148.8040175617
 30
0.0
 40
185.4087170140265
100
AcDbArc
 50
186.2837684552
 51
186.576351524
  0
LINE
  5
112
330
1F
100
AcDbEntity
  8
0
  6
SLD-Сплошная
 62
     7
370
    25
100
AcDbLine
 10
130.3933418799
 20
117.1918260598
 30
0.0
 11
130.3933418799
 21
128.5105285024
 31
0.0
  0
ARC
  5
113
330
1F
100
AcDbEntity
  8
0
  6
SLD-Сплошная
 62
     7
370
    25
100
AcDbCircle
 10
609.0591249514
 20
149.7669915215
 30
0.0
 40
479.7729393038418
100
AcDbArc
 50
183.8932093977
 51
184.075448353
  0
ARC
  5
114
330
1F
100
AcDbEntity
  8
0
  6
SLD-Сплошная
 62
     7
370
    25
100
AcDbCircle
 10
609.0591244472
 20
149.1489574973
 30
0.0
 40
479.7729387984481
100
AcDbArc
 50
183.8932093976
 51
184.075448353
  0
LINE
  5
115
330
1F
100
AcDbEntity
  8
0
  6
SLD-Сплошная
 62
     7
370
    25
100
AcDbLine
 10
130.3933418799
 20
116.5737920711
 30
0.0
 11
130.3933418799
 21
115.1926077516
 31
0.0
  0
LINE
  5
116
330
1F
100
AcDbEntity
  8
0
  6
SLD-Сплошная
 62
     7
370
    25
100
AcDbLine
 10
140.2856429471
 20
168.7566530122
 30
0.0
 11
130.3933418799
 21
168.756653012
 31
0.0
  0
LINE
  5
117
330
1F
100
AcDbEntity
  8
0
  6
SLD-Сплошная
 62
     7
370
    25
100
AcDbLine
 10
140.2856429471
 20
130.1285624912
 30
0.0
 11
130.3933418799
 21
130.1285624911
 31
0.0
  0
SPLINE
  5
118
330
1F
100
AcDbEntity
  8
0
  6
SLD-Сплошная
 62
     7
370
    25
100
AcDbSpline
210
0.0
220
0.0
230
1.0
 70
     8
 71
     3
 72
     8
 73
     4
 74
     0
 42
0.00000001
 43
0.00000001
 40
0.0
 40
0.0
 40
0.0
 40
0.0
 40
1.0
 40
1.0
 40
1.0
 40
1.0
 10
130.3580381884912
 20
151.229967002969
 30
0.0
 10
130.3341255203356
 20
151.2340358627584
 30
0.0
 10
130.3102128521801
 20
151.2348755677961
 30
0.0
 10
130.2863001840245
 20
151.2324698710236
 30
0.0
  0
SPLINE
  5
119
330
1F
100
AcDbEntity
  8
0
  6
SLD-Сплошная
 62
     7
370
    25
100
AcDbSpline
210
0.0
220
0.0
230
1.0
 70
     8
 71
     3
 72
    10
 73
     6
 74
     0
 42
0.00000001
 43
0.00000001
 40
0.0
 40
0.0
 40
0.0
 40
0.0
 40
0.5680411562480464
 40
0.8738677038749826
 40
1.0
 40
1.0
 40
1.0
 40
1.0
 10
130.2750957154761
 20
151.3648080089255
 30
0.0
 10
130.2722871798619
 20
151.3398680167516
 30
0.0
 10
130.2679665623477
 20
151.3015006318253
 30
0.0
 10
130.2480937862934
 20
151.2615005977338
 30
0.0
 10
130.2357769613632
 20
151.2471260371319
 30
0.0
 10
130.2321804395374
 20
151.2429286549953
 30
0.0
  0
SPLINE
  5
11A
330
1F
100
AcDbEntity
  8
0
  6
SLD-Сплошная
 62
     7
370
    25
100
AcDbSpline
210
0.0
220
0.0
230
1.0
 70
     8
 71
     3
 72
    10
 73
     6
 74
     0
 42
0.00000001
 43
0.00000001
 40
0.0
 40
0.0
 40
0.0
 40
0.0
 40
0.5679306102567153
 40
0.8736976412365044
 40
1.0
 40
1.0
 40
1.0
 40
1.0
 10
130.2750957154718
 20
147.5204074943631
 30
0.0
 10
130.2722873606301
 20
147.5453476271704
 30
0.0
 10
130.2679670212142
 20
147.5837152284448
 30
0.0
 10
130.2480892262732
 20
147.6237221532187
 30
0.0
 10
130.2357664650793
 20
147.6381028908226
 30
0.0
 10
130.2321642802399
 20
147.6423066625389
 30
0.0
  0
LINE
  5
11B
330
1F
100
AcDbEntity
  8
0
  6
SLD-Сплошная
 62
     7
370
    25
100
AcDbLine
 10
140.2856429471
 20
181.6933894436
 30
0.0
 11
140.7856429496
 21
183.2156998989
 31
0.0
  0
LINE
  5
11C
330
1F
100
AcDbEntity
  8
0
  6
SLD-Сплошная
 62
     7
370
    25
100
AcDbLine
 10
140.2856429496
 20
171.3155266038
 30
0.0
 11
140.2856429471
 21
181.6933894436
 31
0.0
  0
LINE
  5
11D
330
1F
100
AcDbEntity
  8
0
  6
SLD-Сплошная
 62
     7
370
    25
100
AcDbLine
 10
140.7856429496
 20
115.6695156047
 30
0.0
 11
140.2856429471
 21
117.19182606
 31
0.0
  0
LINE
  5
11E
330
1F
100
AcDbEntity
  8
0
  6
SLD-Сплошная
 62
     7
370
    25
100
AcDbLine
 10
140.2856429471
 20
117.19182606
 30
0.0
 11
140.2856429496
 21
127.5696888996
 31
0.0
  0
LINE
  5
11F
330
1F
100
AcDbEntity
  8
0
  6
SLD-Сплошная
 62
     7
370
    25
100
AcDbLine
 10
140.2856429471
 20
181.6933894436
 30
0.0
 11
130.3933418799
 21
181.6933894438
 31
0.0
  0
LINE
  5
120
330
1F
100
AcDbEntity
  8
0
  6
SLD-Сплошная
 62
     7
370
    25
100
AcDbLine
 10
140.2856429471
 20
117.19182606
 30
0.0
 11
130.3933418799
 21
117.1918260598
 31
0.0
  0
LINE
  5
121
330
1F
100
AcDbEntity
  8
0
  6
SLD-Сплошная
 62
     7
370
    25
100
AcDbLine
 10
127.7218595813
 20
171.242607751
 30
0.0
 11
127.7218595813
 21
150.8749808993
 31
0.0
  0
LINE
  5
122
330
1F
100
AcDbEntity
  8
0
  6
SLD-Сплошная
 62
     7
370
    25
100
AcDbLine
 10
127.7218595813
 20
148.0102288405
 30
0.0
 11
127.7218595814
 21
127.642607751
 31
0.0
  0
LINE
  5
123
330
1F
100
AcDbEntity
  8
0
  6
SLD-Сплошная
 62
     7
370
    25
100
AcDbLine
 10
129.7218595813
 20
127.642607751
 30
0.0
 11
129.7218595813
 21
147.651405646
 31
0.0
  0
LINE
  5
124
330
1F
100
AcDbEntity
  8
0
  6
SLD-Сплошная
 62
     7
370
    25
100
AcDbLine
 10
129.7218595813
 20
151.2321411009
 30
0.0
 11
129.7218595813
 21
171.242607751
 31
0.0
  0
LINE
  5
125
330
1F
100
AcDbEntity
  8
0
  6
SLD-Сплошная
 62
     7
370
    25
100
AcDbLine
 10
127.7218595814
 20
127.642607751
 30
0.0
 11
129.7218595813
 21
127.642607751
 31
0.0
  0
LINE
  5
126
330
1F
100
AcDbEntity
  8
0
  6
SLD-Сплошная
 62
     7
370
    25
100
AcDbLine
 10
127.7218595813
 20
171.242607751
 30
0.0
 11
129.7218595813
 21
171.242607751
 31
0.0
  0
ARC
  5
127
330
1F
100
AcDbEntity
  8
0
  6
SLD-Сплошная
 62
     7
370
    25
100
AcDbCircle
 10
155.5688595814
 20
187.8996077514
 30
0.0
 40
2.050000000000582
100
AcDbArc
 50
25.0
 51
205.0
  0
ARC
  5
128
330
1F
100
AcDbEntity
  8
0
  6
SLD-Сплошная
 62
     7
370
    25
100
AcDbCircle
 10
155.5688595814
 20
187.8996077514
 30
0.0
 40
2.050000000000582
100
AcDbArc
 50
205.0
 51
25.0
  0
LINE
  5
129
330
1F
100
AcDbEntity
  8
0
  6
SLD-Сплошная
 62
     7
370
    25
100
AcDbLine
 10
146.9928385309
 20
178.3239371654
 30
0.0
 11
150.1763218553
 21
187.5916702097
 31
0.0
  0
LINE
  5
12A
330
1F
100
AcDbEntity
  8
0
  6
SLD-Сплошная
 62
     7
370
    25
100
AcDbLine
 10
146.2856429496
 20
173.8168105557
 30
0.0
 11
150.1763218553
 21
177.0872017898
 31
0.0
  0
LINE
  5
12B
330
1F
100
AcDbEntity
  8
0
  6
SLD-Сплошная
 62
     7
370
    25
100
AcDbLine
 10
146.9928385309
 20
178.3239371654
 30
0.0
 11
146.9919783964
 21
178.3214331483
 31
0.0
  0
LINE
  5
12C
330
1F
100
AcDbEntity
  8
0
  6
SLD-Сплошная
 62
     7
370
    25
100
AcDbLine
 10
66.3931281202
 20
144.6476077514
 30
0.0
 11
66.3931281202
 21
144.2944726945
 31
0.0
  0
LINE
  5
12D
330
1F
100
AcDbEntity
  8
0
  6
SLD-Сплошная
 62
     7
370
    25
100
AcDbLine
 10
69.8931281202
 20
144.2944900899
 30
0.0
 11
69.8931281202
 21
144.6476077514
 31
0.0
  0
LINE
  5
12E
330
1F
100
AcDbEntity
  8
0
  6
SLD-Сплошная
 62
     7
370
    25
100
AcDbLine
 10
73.9708504033
 20
154.0408535879
 30
0.0
 11
73.9708504033
 21
153.0726077514
 31
0.0
  0
LINE
  5
12F
330
1F
100
AcDbEntity
  8
0
  6
SLD-Сплошная
 62
     7
370
    25
100
AcDbLine
 10
62.3154058371
 20
153.0726077514
 30
0.0
 11
62.3154058371
 21
154.0408535879
 31
0.0
  0
LINE
  5
130
330
1F
100
AcDbEntity
  8
0
  6
SLD-Сплошная
 62
     7
370
    25
100
AcDbLine
 10
79.3931281202
 20
193.2541481595
 30
0.0
 11
56.7931281202
 21
193.2541481595
 31
0.0
  0
ARC
  5
131
330
1F
100
AcDbEntity
  8
0
  6
SLD-Сплошная
 62
     7
370
    25
100
AcDbCircle
 10
68.0931281202
 20
149.4426077518
 30
0.0
 40
12.15000000000002
100
AcDbArc
 50
329.4698138521
 51
149.4698138521
  0
ARC
  5
132
330
1F
100
AcDbEntity
  8
0
  6
SLD-Сплошная
 62
     7
370
    25
100
AcDbCircle
 10
68.0931281202
 20
149.4426077518
 30
0.0
 40
12.15000000000002
100
AcDbArc
 50
149.4698138521
 51
329.4698138521
  0
LINE
  5
133
330
1F
100
AcDbEntity
  8
0
  6
SLD-Сплошная
 62
     7
370
    25
100
AcDbLine
 10
49.9712092747
 20
140.3509325842
 30
0.0
 11
50.9551391685
 21
138.6097025695
 31
0.0
  0
LINE
  5
134
330
1F
100
AcDbEntity
  8
0
  6
SLD-Сплошная
 62
     7
370
    25
100
AcDbLine
 10
50.6900969389
 20
140.7571598242
 30
0.0
 11
49.9712092747
 21
140.3509325842
 31
0.0
  0
ARC
  5
135
330
1F
100
AcDbEntity
  8
0
  6
SLD-Сплошная
 62
     7
370
    25
100
AcDbCircle
 10
68.0931281202
 20
149.4426077518
 30
0.0
 40
19.45
100
AcDbArc
 50
152.4169116452
 51
206.522716059
  0
LINE
  5
136
330
1F
100
AcDbEntity
  8
0
  6
SLD-Сплошная
 62
     7
370
    25
100
AcDbLine
 10
50.1425625597
 20
158.8680889627
 30
0.0
 11
50.8538095014
 21
158.448627603
 31
0.0
  0
LINE
  5
137
330
1F
100
AcDbEntity
  8
0
  6
SLD-Сплошная
 62
     7
370
    25
100
AcDbLine
 10
51.1585470393
 20
160.5908122536
 30
0.0
 11
50.1425625597
 21
158.8680889627
 31
0.0
  0
LINE
  5
138
330
1F
100
AcDbEntity
  8
0
  6
SLD-Сплошная
 62
     7
370
    25
100
AcDbLine
 10
51.1585470393
 20
160.5908122536
 30
0.0
 11
51.869793981
 21
160.1713508939
 31
0.0
  0
ARC
  5
139
330
1F
100
AcDbEntity
  8
0
  6
SLD-Сплошная
 62
     7
370
    25
100
AcDbCircle
 10
68.0931281202
 20
149.4426077518
 30
0.0
 40
19.45000000000002
100
AcDbArc
 50
92.4169116452
 51
146.522716059
  0
LINE
  5
13A
330
1F
100
AcDbEntity
  8
0
  6
SLD-Сплошная
 62
     7
370
    25
100
AcDbLine
 10
67.2729107889
 20
168.8753055452
 30
0.0
 11
67.2805515114
 21
169.700994145
 31
0.0
  0
LINE
  5
13B
330
1F
100
AcDbEntity
  8
0
  6
SLD-Сплошная
 62
     7
370
    25
100
AcDbLine
 10
69.2804658849
 20
169.6824874213
 30
0.0
 11
67.2805515114
 21
169.700994145
 31
0.0
  0
LINE
  5
13C
330
1F
100
AcDbEntity
  8
0
  6
SLD-Сплошная
 62
     7
370
    25
100
AcDbLine
 10
69.2804658849
 20
169.6824874213
 30
0.0
 11
69.2728251623
 21
168.8567988215
 31
0.0
  0
ARC
  5
13D
330
1F
100
AcDbEntity
  8
0
  6
SLD-Сплошная
 62
     7
370
    25
100
AcDbCircle
 10
68.0931281202
 20
149.4426077518
 30
0.0
 40
19.45
100
AcDbArc
 50
32.4169116452
 51
86.522716059
  0
LINE
  5
13E
330
1F
100
AcDbEntity
  8
0
  6
SLD-Сплошная
 62
     7
370
    25
100
AcDbLine
 10
85.231117072
 20
160.2755129342
 30
0.0
 11
84.5122294077
 21
159.8692856941
 31
0.0
  0
LINE
  5
13F
330
1F
100
AcDbEntity
  8
0
  6
SLD-Сплошная
 62
     7
370
    25
100
AcDbLine
 10
86.2150469658
 20
158.5342829195
 30
0.0
 11
85.231117072
 21
160.2755129342
 31
0.0
  0
LINE
  5
140
330
1F
100
AcDbEntity
  8
0
  6
SLD-Сплошная
 62
     7
370
    25
100
AcDbLine
 10
86.2150469658
 20
158.5342829195
 30
0.0
 11
85.4961593015
 21
158.1280556794
 31
0.0
  0
ARC
  5
141
330
1F
100
AcDbEntity
  8
0
  6
SLD-Сплошная
 62
     7
370
    25
100
AcDbCircle
 10
68.0931281202
 20
149.4426077518
 30
0.0
 40
19.45000000000001
100
AcDbArc
 50
332.4169116452
 51
26.522716059
  0
LINE
  5
142
330
1F
100
AcDbEntity
  8
0
  6
SLD-Сплошная
 62
     7
370
    25
100
AcDbLine
 10
86.0436936808
 20
140.017126541
 30
0.0
 11
85.3324467391
 21
140.4365879007
 31
0.0
  0
LINE
  5
143
330
1F
100
AcDbEntity
  8
0
  6
SLD-Сплошная
 62
     7
370
    25
100
AcDbLine
 10
85.0277092012
 20
138.2944032501
 30
0.0
 11
86.0436936808
 21
140.017126541
 31
0.0
  0
LINE
  5
144
330
1F
100
AcDbEntity
  8
0
  6
SLD-Сплошная
 62
     7
370
    25
100
AcDbLine
 10
85.0277092012
 20
138.2944032501
 30
0.0
 11
84.3164622594
 21
138.7138646098
 31
0.0
  0
ARC
  5
145
330
1F
100
AcDbEntity
  8
0
  6
SLD-Сплошная
 62
     7
370
    25
100
AcDbCircle
 10
68.0931281202
 20
149.4426077518
 30
0.0
 40
19.44999999999999
100
AcDbArc
 50
272.4169116452
 51
326.522716059
  0
LINE
  5
146
330
1F
100
AcDbEntity
  8
0
  6
SLD-Сплошная
 62
     7
370
    25
100
AcDbLine
 10
68.9057047291
 20
129.1842213587
 30
0.0
 11
68.9133454516
 21
130.0099099584
 31
0.0
  0
LINE
  5
147
330
1F
100
AcDbEntity
  8
0
  6
SLD-Сплошная
 62
     7
370
    25
100
AcDbLine
 10
66.9057903556
 20
129.2027280824
 30
0.0
 11
68.9057047291
 21
129.1842213587
 31
0.0
  0
LINE
  5
148
330
1F
100
AcDbEntity
  8
0
  6
SLD-Сплошная
 62
     7
370
    25
100
AcDbLine
 10
66.9057903556
 20
129.2027280824
 30
0.0
 11
66.9134310781
 21
130.0284166822
 31
0.0
  0
ARC
  5
149
330
1F
100
AcDbEntity
  8
0
  6
SLD-Сплошная
 62
     7
370
    25
100
AcDbCircle
 10
68.0931281202
 20
149.4426077518
 30
0.0
 40
19.45000000000001
100
AcDbArc
 50
212.4169116452
 51
266.522716059
  0
LINE
  5
14A
330
1F
100
AcDbEntity
  8
0
  6
SLD-Сплошная
 62
     7
370
    25
100
AcDbLine
 10
50.9551391685
 20
138.6097025695
 30
0.0
 11
51.6740268328
 21
139.0159298096
 31
0.0
  0
ARC
  5
14B
330
1F
100
AcDbEntity
  8
0
  6
SLD-Сплошная
 62
     7
370
    25
100
AcDbCircle
 10
68.0931281202
 20
149.4426077518
 30
0.0
 40
10.05000000000002
100
AcDbArc
 50
329.4698138521
 51
149.4698138521
  0
ARC
  5
14C
330
1F
100
AcDbEntity
  8
0
  6
SLD-Сплошная
 62
     7
370
    25
100
AcDbCircle
 10
68.0931281202
 20
149.4426077518
 30
0.0
 40
10.05000000000002
100
AcDbArc
 50
149.4698138521
 51
329.4698138521
  0
ARC
  5
14D
330
1F
100
AcDbEntity
  8
0
  6
SLD-Сплошная
 62
     7
370
    25
100
AcDbCircle
 10
68.0931281202
 20
149.4426077518
 30
0.0
 40
22.64999999999997
100
AcDbArc
 50
56.0844618904
 51
62.8551658138
  0
LINE
  5
14E
330
1F
100
AcDbEntity
  8
0
  6
SLD-Сплошная
 62
     7
370
    25
100
AcDbLine
 10
85.231117072
 20
160.2755129342
 30
0.0
 11
80.7311527079
 21
168.2389593798
 31
0.0
  0
LINE
  5
14F
330
1F
100
AcDbEntity
  8
0
  6
SLD-Сплошная
 62
     7
370
    25
100
AcDbLine
 10
69.2804658849
 20
169.6824874213
 30
0.0
 11
78.4269949905
 21
169.5978476539
 31
0.0
  0
ARC
  5
150
330
1F
100
AcDbEntity
  8
0
  6
SLD-Сплошная
 62
     7
370
    25
100
AcDbCircle
 10
68.0931281202
 20
149.4426077518
 30
0.0
 40
22.65000000000004
100
AcDbArc
 50
116.0844618904
 51
122.8551658138
  0
LINE
  5
151
330
1F
100
AcDbEntity
  8
0
  6
SLD-Сплошная
 62
     7
370
    25
100
AcDbLine
 10
51.1585470393
 20
160.5908122536
 30
0.0
 11
55.8051117808
 21
168.4696189318
 31
0.0
  0
LINE
  5
152
330
1F
100
AcDbEntity
  8
0
  6
SLD-Сплошная
 62
     7
370
    25
100
AcDbLine
 10
67.2805515114
 20
169.700994145
 30
0.0
 11
58.1340224058
 21
169.7856339124
 31
0.0
  0
ARC
  5
153
330
1F
100
AcDbEntity
  8
0
  6
SLD-Сплошная
 62
     7
370
    25
100
AcDbCircle
 10
68.0931281202
 20
149.4426077518
 30
0.0
 40
22.65000000000004
100
AcDbArc
 50
356.0844618904
 51
2.8551658138
  0
LINE
  5
154
330
1F
100
AcDbEntity
  8
0
  6
SLD-Сплошная
 62
     7
370
    25
100
AcDbLine
 10
86.0436936808
 20
140.017126541
 30
0.0
 11
90.6902584223
 21
147.8959332192
 31
0.0
  0
LINE
  5
155
330
1F
100
AcDbEntity
  8
0
  6
SLD-Сплошная
 62
     7
370
    25
100
AcDbLine
 10
86.2150469658
 20
158.5342829195
 30
0.0
 11
90.7150113299
 21
150.5708364739
 31
0.0
  0
ARC
  5
156
330
1F
100
AcDbEntity
  8
0
  6
SLD-Сплошная
 62
     7
370
    25
100
AcDbCircle
 10
68.0931281202
 20
149.4426077518
 30
0.0
 40
22.65000000000004
100
AcDbArc
 50
296.0844618904
 51
302.8551658138
  0
LINE
  5
157
330
1F
100
AcDbEntity
  8
0
  6
SLD-Сплошная
 62
     7
370
    25
100
AcDbLine
 10
68.9057047291
 20
129.1842213587
 30
0.0
 11
78.0522338347
 21
129.0995815913
 31
0.0
  0
LINE
  5
158
330
1F
100
AcDbEntity
  8
0
  6
SLD-Сплошная
 62
     7
370
    25
100
AcDbLine
 10
85.0277092012
 20
138.2944032501
 30
0.0
 11
80.3811444597
 21
130.4155965719
 31
0.0
  0
ARC
  5
159
330
1F
100
AcDbEntity
  8
0
  6
SLD-Сплошная
 62
     7
370
    25
100
AcDbCircle
 10
68.0931281202
 20
149.4426077518
 30
0.0
 40
22.64999999999994
100
AcDbArc
 50
176.0844618904
 51
182.8551658138
  0
LINE
  5
15A
330
1F
100
AcDbEntity
  8
0
  6
SLD-Сплошная
 62
     7
370
    25
100
AcDbLine
 10
49.9712092747
 20
140.3509325842
 30
0.0
 11
45.4712449106
 21
148.3143790298
 31
0.0
  0
LINE
  5
15B
330
1F
100
AcDbEntity
  8
0
  6
SLD-Сплошная
 62
     7
370
    25
100
AcDbLine
 10
50.1425625597
 20
158.8680889627
 30
0.0
 11
45.4959978181
 21
150.9892822844
 31
0.0
  0
ARC
  5
15C
330
1F
100
AcDbEntity
  8
0
  6
SLD-Сплошная
 62
     7
370
    25
100
AcDbCircle
 10
68.0931281202
 20
149.4426077518
 30
0.0
 40
22.65000000000007
100
AcDbArc
 50
236.0844618904
 51
242.8551658138
  0
LINE
  5
15D
330
1F
100
AcDbEntity
  8
0
  6
SLD-Сплошная
 62
     7
370
    25
100
AcDbLine
 10
57.75926125
 20
129.2873678498
 30
0.0
 11
66.9057903556
 21
129.2027280824
 31
0.0
  0
LINE
  5
15E
330
1F
100
AcDbEntity
  8
0
  6
SLD-Сплошная
 62
     7
370
    25
100
AcDbLine
 10
50.9551391685
 20
138.6097025695
 30
0.0
 11
55.4551035326
 21
130.6462561239
 31
0.0
  0
ARC
  5
15F
330
1F
100
AcDbEntity
  8
0
  6
SLD-Сплошная
 62
     7
370
    25
100
AcDbCircle
 10
68.0931281202
 20
149.4426077518
 30
0.0
 40
8.500000000000039
100
AcDbArc
 50
329.4698138521
 51
0.0
  0
ARC
  5
160
330
1F
100
AcDbEntity
  8
0
  6
SLD-Сплошная
 62
     7
370
    25
100
AcDbCircle
 10
68.0931281202
 20
149.4426077518
 30
0.0
 40
8.500000000000036
100
AcDbArc
 50
0.0
 51
149.4698138521
  0
ARC
  5
161
330
1F
100
AcDbEntity
  8
0
  6
SLD-Сплошная
 62
     7
370
    25
100
AcDbCircle
 10
68.0931281202
 20
149.4426077518
 30
0.0
 40
8.500000000000036
100
AcDbArc
 50
149.4698138521
 51
180.0
  0
ARC
  5
162
330
1F
100
AcDbEntity
  8
0
  6
SLD-Сплошная
 62
     7
370
    25
100
AcDbCircle
 10
68.0931281202
 20
149.4426077518
 30
0.0
 40
8.500000000000039
100
AcDbArc
 50
180.0
 51
329.4698138521
  0
ARC
  5
163
330
1F
100
AcDbEntity
  8
0
  6
SLD-Сплошная
 62
     7
370
    25
100
AcDbCircle
 10
68.0931281202
 20
149.4426077518
 30
0.0
 40
22.65
100
AcDbArc
 50
2.8551658138
 51
56.0844618904
  0
ARC
  5
164
330
1F
100
AcDbEntity
  8
0
  6
SLD-Сплошная
 62
     7
370
    25
100
AcDbCircle
 10
68.0931281202
 20
149.4426077518
 30
0.0
 40
22.65000000000001
100
AcDbArc
 50
62.8551658138
 51
116.0844618904
  0
ARC
  5
165
330
1F
100
AcDbEntity
  8
0
  6
SLD-Сплошная
 62
     7
370
    25
100
AcDbCircle
 10
68.0931281202
 20
149.4426077518
 30
0.0
 40
22.65000000000003
100
AcDbArc
 50
302.8551658138
 51
329.4698138521
  0
ARC
  5
166
330
1F
100
AcDbEntity
  8
0
  6
SLD-Сплошная
 62
     7
370
    25
100
AcDbCircle
 10
68.0931281202
 20
149.4426077518
 30
0.0
 40
22.65000000000004
100
AcDbArc
 50
329.4698138521
 51
356.0844618904
  0
ARC
  5
167
330
1F
100
AcDbEntity
  8
0
  6
SLD-Сплошная
 62
     7
370
    25
100
AcDbCircle
 10
68.0931281202
 20
149.4426077518
 30
0.0
 40
22.65000000000001
100
AcDbArc
 50
149.4698138521
 51
176.0844618904
  0
ARC
  5
168
330
1F
100
AcDbEntity
  8
0
  6
SLD-Сплошная
 62
     7
370
    25
100
AcDbCircle
 10
68.0931281202
 20
149.4426077518
 30
0.0
 40
22.65000000000002
100
AcDbArc
 50
122.8551658138
 51
149.4698138521
  0
ARC
  5
169
330
1F
100
AcDbEntity
  8
0
  6
SLD-Сплошная
 62
     7
370
    25
100
AcDbCircle
 10
68.0931281202
 20
149.4426077518
 30
0.0
 40
22.65000000000001
100
AcDbArc
 50
182.8551658138
 51
236.0844618904
  0
ARC
  5
16A
330
1F
100
AcDbEntity
  8
0
  6
SLD-Сплошная
 62
     7
370
    25
100
AcDbCircle
 10
68.0931281202
 20
149.4426077518
 30
0.0
 40
22.65000000000002
100
AcDbArc
 50
242.8551658138
 51
296.0844618904
  0
LINE
  5
16B
330
1F
100
AcDbEntity
  8
0
  6
SLD-Сплошная
 62
     7
370
    25
100
AcDbLine
 10
70.3931281202
 20
144.6476077514
 30
0.0
 11
70.3931281202
 21
141.2596987336
 31
0.0
  0
LINE
  5
16C
330
1F
100
AcDbEntity
  8
0
  6
SLD-Сплошная
 62
     7
370
    25
100
AcDbLine
 10
65.8931281202
 20
144.6476077514
 30
0.0
 11
70.3931281202
 21
144.6476077514
 31
0.0
  0
LINE
  5
16D
330
1F
100
AcDbEntity
  8
0
  6
SLD-Сплошная
 62
     7
370
    25
100
AcDbLine
 10
65.8931281202
 20
141.2322484418
 30
0.0
 11
65.8931281202
 21
144.6476077514
 31
0.0
  0
LINE
  5
16E
330
1F
100
AcDbEntity
  8
0
  6
SLD-Сплошная
 62
     7
370
    25
100
AcDbLine
 10
72.9931281202
 20
150.7976077514
 30
0.0
 11
63.2931281202
 21
150.7976077514
 31
0.0
  0
LINE
  5
16F
330
1F
100
AcDbEntity
  8
0
  6
SLD-Сплошная
 62
     7
370
    25
100
AcDbLine
 10
63.2931281202
 20
150.7976077514
 30
0.0
 11
63.2931281202
 21
142.4276237889
 31
0.0
  0
LINE
  5
170
330
1F
100
AcDbEntity
  8
0
  6
SLD-Сплошная
 62
     7
370
    25
100
AcDbLine
 10
72.9931281202
 20
142.4971056102
 30
0.0
 11
72.9931281202
 21
150.7976077514
 31
0.0
  0
ARC
  5
171
330
1F
100
AcDbEntity
  8
0
  6
SLD-Сплошная
 62
     7
370
    25
100
AcDbCircle
 10
68.1431281202
 20
139.9476077514
 30
0.0
 40
2.000000000000005
100
AcDbArc
 50
35.5281575186
 51
145.0752679675
  0
ARC
  5
172
330
1F
100
AcDbEntity
  8
0
  6
SLD-Сплошная
 62
     7
370
    25
100
AcDbCircle
 10
68.1431281202
 20
140.6976077514
 30
0.0
 40
4.000000000000014
100
AcDbArc
 50
55.7711336722
 51
80.931278454
  0
ARC
  5
173
330
1F
100
AcDbEntity
  8
0
  6
SLD-Сплошная
 62
     7
370
    25
100
AcDbCircle
 10
68.1431281202
 20
140.6976077514
 30
0.0
 40
4.00000000000002
100
AcDbArc
 50
99.068721546
 51
124.2288663278
  0
LINE
  5
174
330
1F
100
AcDbEntity
  8
0
  6
SLD-Сплошная
 62
     7
370
    25
100
AcDbLine
 10
71.8931281202
 20
150.7976077514
 30
0.0
 11
71.8931281202
 21
157.045896514
 31
0.0
  0
LINE
  5
175
330
1F
100
AcDbEntity
  8
0
  6
SLD-Сплошная
 62
     7
370
    25
100
AcDbLine
 10
72.9931281202
 20
150.7976077514
 30
0.0
 11
72.9931281202
 21
156.3881098935
 31
0.0
  0
LINE
  5
176
330
1F
100
AcDbEntity
  8
0
  6
SLD-Сплошная
 62
     7
370
    25
100
AcDbLine
 10
64.3931281202
 20
157.0950583397
 30
0.0
 11
64.3931281202
 21
150.7976077514
 31
0.0
  0
LINE
  5
177
330
1F
100
AcDbEntity
  8
0
  6
SLD-Сплошная
 62
     7
370
    25
100
AcDbLine
 10
63.2931281202
 20
150.7976077514
 30
0.0
 11
63.2931281202
 21
156.4575917147
 31
0.0
  0
LINE
  5
178
330
1F
100
AcDbEntity
  8
0
  6
SLD-Сплошная
 62
     7
370
    25
100
AcDbLine
 10
65.0431281202
 20
151.4976077514
 30
0.0
 11
71.2431281202
 21
151.4976077514
 31
0.0
  0
LINE
  5
179
330
1F
100
AcDbEntity
  8
0
  6
SLD-Сплошная
 62
     7
370
    25
100
AcDbLine
 10
62.8740120092
 20
156.1516186342
 30
0.0
 11
62.8215338496
 21
153.7963732525
 31
0.0
  0
ARC
  5
17A
330
1F
100
AcDbEntity
  8
0
  6
SLD-Сплошная
 62
     7
370
    25
100
AcDbCircle
 10
60.5221045669
 20
153.8476077514
 30
0.0
 40
2.30000000000003
100
AcDbArc
 50
253.8327316261
 51
358.7235811382
  0
LINE
  5
17B
330
1F
100
AcDbEntity
  8
0
  6
SLD-Сплошная
 62
     7
370
    25
100
AcDbLine
 10
73.4647223908
 20
153.7963732525
 30
0.0
 11
73.4140365784
 21
156.0711772189
 31
0.0
  0
ARC
  5
17C
330
1F
100
AcDbEntity
  8
0
  6
SLD-Сплошная
 62
     7
370
    25
100
AcDbCircle
 10
75.7641516735
 20
153.8476077514
 30
0.0
 40
2.300000000000052
100
AcDbArc
 50
181.2764188618
 51
283.7595622057
  0
LINE
  5
17D
330
1F
100
AcDbEntity
  8
0
  6
SLD-Сплошная
 62
     7
370
    25
100
AcDbLine
 10
65.0431281202
 20
150.7976077514
 30
0.0
 11
65.0431281202
 21
151.4976077514
 31
0.0
  0
LINE
  5
17E
330
1F
100
AcDbEntity
  8
0
  6
SLD-Сплошная
 62
     7
370
    25
100
AcDbLine
 10
71.2431281202
 20
151.4976077514
 30
0.0
 11
71.2431281202
 21
150.7976077514
 31
0.0
  0
ARC
  5
17F
330
1F
100
AcDbEntity
  8
0
  6
SLD-Сплошная
 62
     7
370
    25
100
AcDbCircle
 10
60.5654058371
 20
153.8226077514
 30
0.0
 40
5.500000000000006
100
AcDbArc
 50
326.6329870308
 51
334.9931082523
  0
ARC
  5
180
330
1F
100
AcDbEntity
  8
0
  6
SLD-Сплошная
 62
     7
370
    25
100
AcDbCircle
 10
60.5654058371
 20
153.0726077514
 30
0.0
 40
2.000000000000007
100
AcDbArc
 50
350.4049700733
 51
0.0
  0
ARC
  5
181
330
1F
100
AcDbEntity
  8
0
  6
SLD-Сплошная
 62
     7
370
    25
100
AcDbCircle
 10
60.5654058371
 20
153.0726077514
 30
0.0
 40
2.000000000000009
100
AcDbArc
 50
0.0
 51
61.5235892892
  0
ARC
  5
182
330
1F
100
AcDbEntity
  8
0
  6
SLD-Сплошная
 62
     7
370
    25
100
AcDbCircle
 10
75.7208504033
 20
153.8226077514
 30
0.0
 40
5.499999999999996
100
AcDbArc
 50
205.0068917477
 51
213.3670129692
  0
ARC
  5
183
330
1F
100
AcDbEntity
  8
0
  6
SLD-Сплошная
 62
     7
370
    25
100
AcDbCircle
 10
75.7208504033
 20
153.0726077514
 30
0.0
 40
2.000000000000023
100
AcDbArc
 50
120.7289207903
 51
180.0
  0
LINE
  5
184
330
1F
100
AcDbEntity
  8
0
  6
SLD-Сплошная
 62
     7
370
    25
100
AcDbLine
 10
73.7208504033
 20
153.0726077514
 30
0.0
 11
73.7488294042
 21
152.739241318
 31
0.0
  0
LINE
  5
185
330
1F
100
AcDbEntity
  8
0
  6
SLD-Сплошная
 62
     7
370
    25
100
AcDbLine
 10
73.9708504033
 20
153.0726077514
 30
0.0
 11
75.7790308
 21
153.0726077514
 31
0.0
  0
LINE
  5
186
330
1F
100
AcDbEntity
  8
0
  6
SLD-Сплошная
 62
     7
370
    25
100
AcDbLine
 10
60.4072254404
 20
153.0726077514
 30
0.0
 11
62.3154058371
 21
153.0726077514
 31
0.0
  0
ARC
  5
187
330
1F
100
AcDbEntity
  8
0
  6
SLD-Сплошная
 62
     7
370
    25
100
AcDbCircle
 10
68.0931281202
 20
127.3926077514
 30
0.0
 40
6.500000000000694
100
AcDbArc
 50
197.0630597208
 51
342.9369402793
  0
ARC
  5
188
330
1F
100
AcDbEntity
  8
0
  6
SLD-Сплошная
 62
     7
370
    25
100
AcDbCircle
 10
68.0931281202
 20
149.4426077518
 30
0.0
 40
24.75000000000005
100
AcDbArc
 50
180.0
 51
255.4593935604
  0
ARC
  5
189
330
1F
100
AcDbEntity
  8
0
  6
SLD-Сплошная
 62
     7
370
    25
100
AcDbCircle
 10
68.0931281202
 20
149.4426077518
 30
0.0
 40
24.75000000000003
100
AcDbArc
 50
284.5406064397
 51
0.0
  0
ARC
  5
18A
330
1F
100
AcDbEntity
  8
0
  6
SLD-Сплошная
 62
     7
370
    25
100
AcDbCircle
 10
68.0931281202
 20
149.4426077518
 30
0.0
 40
24.74999999999999
100
AcDbArc
 50
0.0
 51
69.3638570271
  0
SPLINE
  5
18B
330
1F
100
AcDbEntity
  8
0
  6
SLD-Сплошная
 62
     7
370
    25
100
AcDbSpline
210
0.0
220
0.0
230
1.0
 70
     8
 71
     3
 72
    14
 73
    10
 74
     0
 42
0.00000001
 43
0.00000001
 40
0.0
 40
0.0
 40
0.0
 40
0.0
 40
0.25
 40
0.25
 40
0.5
 40
0.5
 40
0.7500000000000001
 40
0.7500000000000001
 40
1.0
 40
1.0
 40
1.0
 40
1.0
 10
59.19312812023477
 20
172.5370334862027
 30
0.0
 10
60.59419666889966
 20
173.0769694095525
 30
0.0
 10
62.04450922113579
 20
173.4890468498195
 30
0.0
 10
64.99581922941121
 20
174.0439024639928
 30
0.0
 10
66.49676279989505
 20
174.1866705072443
 30
0.0
 10
69.49975514386942
 20
174.1981813524607
 30
0.0
 10
71.00174908817903
 20
174.0669239442585
 30
0.0
 10
73.95722597085557
 20
173.5347097829562
 30
0.0
 10
75.41065494758755
 20
173.1337627471191
 30
0.0
 10
76.8158215485066
 20
172.6045834740526
 30
0.0
  0
ARC
  5
18C
330
1F
100
AcDbEntity
  8
0
  6
SLD-Сплошная
 62
     7
370
    25
100
AcDbCircle
 10
68.0931281202
 20
149.4426077518
 30
0.0
 40
24.75000000000001
100
AcDbArc
 50
111.0753845985
 51
180.0
  0
LINE
  5
18D
330
1F
100
AcDbEntity
  8
0
  6
SLD-Сплошная
 62
     7
370
    25
100
AcDbLine
 10
85.4431281202
 20
191.8970955999
 30
0.0
 11
85.4431281202
 21
174.4497548321
 31
0.0
  0
LINE
  5
18E
330
1F
100
AcDbEntity
  8
0
  6
SLD-Сплошная
 62
     7
370
    25
100
AcDbLine
 10
85.4431281202
 20
174.4497548321
 30
0.0
 11
79.3931281202
 21
174.4497548321
 31
0.0
  0
LINE
  5
18F
330
1F
100
AcDbEntity
  8
0
  6
SLD-Сплошная
 62
     7
370
    25
100
AcDbLine
 10
79.3931281202
 20
191.8970955999
 30
0.0
 11
79.3931281202
 21
174.4497548321
 31
0.0
  0
LINE
  5
190
330
1F
100
AcDbEntity
  8
0
  6
SLD-Сплошная
 62
     7
370
    25
100
AcDbLine
 10
85.4431281202
 20
174.4497548321
 30
0.0
 11
85.4431281202
 21
167.0931034956
 31
0.0
  0
LINE
  5
191
330
1F
100
AcDbEntity
  8
0
  6
SLD-Сплошная
 62
     7
370
    25
100
AcDbLine
 10
79.3931281202
 20
174.4497548321
 30
0.0
 11
79.3931281202
 21
171.4624283687
 31
0.0
  0
LINE
  5
192
330
1F
100
AcDbEntity
  8
0
  6
SLD-Сплошная
 62
     7
370
    25
100
AcDbLine
 10
50.7431281202
 20
174.4497548321
 30
0.0
 11
50.7431281202
 21
191.8970955999
 31
0.0
  0
LINE
  5
193
330
1F
100
AcDbEntity
  8
0
  6
SLD-Сплошная
 62
     7
370
    25
100
AcDbLine
 10
56.7931281202
 20
191.8970955999
 30
0.0
 11
56.7931281202
 21
174.4497548321
 31
0.0
  0
LINE
  5
194
330
1F
100
AcDbEntity
  8
0
  6
SLD-Сплошная
 62
     7
370
    25
100
AcDbLine
 10
56.7931281202
 20
174.4497548321
 30
0.0
 11
50.7431281202
 21
174.4497548321
 31
0.0
  0
LINE
  5
195
330
1F
100
AcDbEntity
  8
0
  6
SLD-Сплошная
 62
     7
370
    25
100
AcDbLine
 10
50.7431281202
 20
167.0931034956
 30
0.0
 11
50.7431281202
 21
174.4497548321
 31
0.0
  0
LINE
  5
196
330
1F
100
AcDbEntity
  8
0
  6
SLD-Сплошная
 62
     7
370
    25
100
AcDbLine
 10
56.7931281202
 20
171.4624283687
 30
0.0
 11
56.7931281202
 21
174.4497548321
 31
0.0
  0
LINE
  5
197
330
1F
100
AcDbEntity
  8
0
  6
SLD-Сплошная
 62
     7
370
    25
100
AcDbLine
 10
85.4431281202
 20
193.3055782611
 30
0.0
 11
79.3931281202
 21
193.3055782611
 31
0.0
  0
LINE
  5
198
330
1F
100
AcDbEntity
  8
0
  6
SLD-Сплошная
 62
     7
370
    25
100
AcDbLine
 10
79.3931281202
 20
193.3055782611
 30
0.0
 11
79.3931281202
 21
191.8970955999
 31
0.0
  0
LINE
  5
199
330
1F
100
AcDbEntity
  8
0
  6
SLD-Сплошная
 62
     7
370
    25
100
AcDbLine
 10
85.4431281202
 20
191.8970955999
 30
0.0
 11
85.4431281202
 21
193.3055782611
 31
0.0
  0
LINE
  5
19A
330
1F
100
AcDbEntity
  8
0
  6
SLD-Сплошная
 62
     7
370
    25
100
AcDbLine
 10
56.7931281202
 20
193.3055782611
 30
0.0
 11
50.7431281202
 21
193.3055782611
 31
0.0
  0
LINE
  5
19B
330
1F
100
AcDbEntity
  8
0
  6
SLD-Сплошная
 62
     7
370
    25
100
AcDbLine
 10
50.7431281202
 20
191.8970955999
 30
0.0
 11
50.7431281202
 21
193.3055782611
 31
0.0
  0
LINE
  5
19C
330
1F
100
AcDbEntity
  8
0
  6
SLD-Сплошная
 62
     7
370
    25
100
AcDbLine
 10
56.7931281202
 20
193.3055782611
 30
0.0
 11
56.7931281202
 21
191.8970955999
 31
0.0
  0
ARC
  5
19D
330
1F
100
AcDbEntity
  8
0
  6
SLD-Сплошная
 62
     7
370
    25
100
AcDbCircle
 10
68.0931281202
 20
149.4426077518
 30
0.0
 40
26.25000000000005
100
AcDbArc
 50
285.4660103786
 51
0.0
  0
LINE
  5
19E
330
1F
100
AcDbEntity
  8
0
  6
SLD-Сплошная
 62
     7
370
    25
100
AcDbLine
 10
75.093128308
 20
124.1431512879
 30
0.0
 11
75.093128308
 21
120.2707032923
 31
0.0
  0
ARC
  5
19F
330
1F
100
AcDbEntity
  8
0
  6
SLD-Сплошная
 62
     7
370
    25
100
AcDbCircle
 10
68.0931281202
 20
149.4426077518
 30
0.0
 40
30.00000020710743
100
AcDbArc
 50
266.5601872458
 51
283.4933990954
  0
LINE
  5
1A0
330
1F
100
AcDbEntity
  8
0
  6
SLD-Сплошная
 62
     7
370
    25
100
AcDbLine
 10
66.293128115
 20
119.4966562371
 30
0.0
 11
66.2931281202
 21
121.1468091636
 31
0.0
  0
ARC
  5
1A1
330
1F
100
AcDbEntity
  8
0
  6
SLD-Сплошная
 62
     7
370
    25
100
AcDbCircle
 10
68.0931281202
 20
149.4426077518
 30
0.0
 40
26.25
100
AcDbArc
 50
0.0
 51
48.6274527194
  0
ARC
  5
1A2
330
1F
100
AcDbEntity
  8
0
  6
SLD-Сплошная
 62
     7
370
    25
100
AcDbCircle
 10
68.0931281202
 20
149.4426077518
 30
0.0
 40
26.25000000000005
100
AcDbArc
 50
131.3725472806
 51
258.1646284781
  0
LINE
  5
1A3
330
1F
100
AcDbEntity
  8
0
  6
SLD-Сплошная
 62
     7
370
    25
100
AcDbLine
 10
87.99357891
 20
132.3243555524
 30
0.0
 11
92.7297967594
 21
132.3243555524
 31
0.0
  0
ARC
  5
1A4
330
1F
100
AcDbEntity
  8
0
  6
SLD-Сплошная
 62
     7
370
    25
100
AcDbCircle
 10
68.0931281202
 20
149.4426077518
 30
0.0
 40
30.00000000000002
100
AcDbArc
 50
325.2073372967
 51
352.3377443397
  0
ARC
  5
1A5
330
1F
100
AcDbEntity
  8
0
  6
SLD-Сплошная
 62
     7
370
    25
100
AcDbCircle
 10
68.0931281202
 20
149.4426077518
 30
0.0
 40
30.00000000000001
100
AcDbArc
 50
7.6622556612
 51
54.6665966332
  0
LINE
  5
1A6
330
1F
100
AcDbEntity
  8
0
  6
SLD-Сплошная
 62
     7
370
    25
100
AcDbLine
 10
49.6065658115
 20
168.0788497014
 30
0.0
 11
44.5837579459
 21
168.0788497014
 31
0.0
  0
ARC
  5
1A7
330
1F
100
AcDbEntity
  8
0
  6
SLD-Сплошная
 62
     7
370
    25
100
AcDbCircle
 10
68.0931281202
 20
149.4426077518
 30
0.0
 40
29.99999999999998
100
AcDbArc
 50
141.5955924544
 51
155.076905604
  0
SPLINE
  5
1A8
330
1F
100
AcDbEntity
  8
0
  6
SLD-Сплошная
 62
     7
370
    25
100
AcDbSpline
210
0.0
220
0.0
230
1.0
 70
     8
 71
     3
 72
    17
 73
    13
 74
     0
 42
0.00000001
 43
0.00000001
 40
0.0
 40
0.0
 40
0.0
 40
0.0
 40
0.0865783710624836
 40
0.1781110485477889
 40
0.2742516768581709
 40
0.3744588008733668
 40
0.4779916460807368
 40
0.5839263363010367
 40
0.6911948361141728
 40
0.7986442712160567
 40
0.9101255565281656
 40
1.0
 40
1.0
 40
1.0
 40
1.0
 10
66.2931281202343
 20
119.4966564395172
 30
0.0
 10
65.10554453703843
 20
119.6093674902872
 30
0.0
 10
62.66241983227235
 20
119.8412392983289
 30
0.0
 10
58.99031895734853
 20
120.7751752755928
 30
0.0
 10
55.28784501662098
 20
122.2099190727701
 30
0.0
 10
51.66884915930109
 20
124.2208107497285
 30
0.0
 10
48.25757796216416
 20
126.7969117665563
 30
0.0
 10
45.18477992518189
 20
129.9067799209978
 30
0.0
 10
42.56289115677323
 20
133.4752314570962
 30
0.0
 10
40.47862077791783
 20
137.4601910725209
 30
0.0
 10
39.02517654798542
 20
141.4791109831912
 30
0.0
 10
38.60023705779182
 20
144.2194615937066
 30
0.0
 10
38.4105667642223
 20
145.4426077516291
 30
0.0
  0
SPLINE
  5
1A9
330
1F
100
AcDbEntity
  8
0
  6
SLD-Сплошная
 62
     7
370
    25
100
AcDbSpline
210
0.0
220
0.0
230
1.0
 70
     8
 71
     3
 72
    10
 73
     6
 74
     0
 42
0.00000001
 43
0.00000001
 40
0.0
 40
0.0
 40
0.0
 40
0.0
 40
0.1441752122174594
 40
0.5844944966499177
 40
1.0
 40
1.0
 40
1.0
 40
1.0
 10
38.42403954848105
 20
153.4426077516297
 30
0.0
 10
38.46457980946183
 20
153.8745575822401
 30
0.0
 10
38.62893232936852
 20
155.6257067218014
 30
0.0
 10
39.42090524902242
 20
158.5533746353048
 30
0.0
 10
40.40777360228678
 20
160.9305321655107
 30
0.0
 10
40.88690115002448
 20
162.0846492818071
 30
0.0
  0
ARC
  5
1AA
330
1F
100
AcDbEntity
  8
0
  6
SLD-Сплошная
 62
     7
370
    25
100
AcDbCircle
 10
68.0931281202
 20
149.4426077518
 30
0.0
 40
25.70000000000002
100
AcDbArc
 50
90.0
 51
116.0840216804
  0
ARC
  5
1AB
330
1F
100
AcDbEntity
  8
0
  6
SLD-Сплошная
 62
     7
370
    25
100
AcDbCircle
 10
68.0931281202
 20
149.4426077518
 30
0.0
 40
25.70000000000002
100
AcDbArc
 50
63.9159783196
 51
90.0
  0
ARC
  5
1AC
330
1F
100
AcDbEntity
  8
0
  6
SLD-Сплошная
 62
     7
370
    25
100
AcDbCircle
 10
68.0392084942
 20
149.4426077514
 30
0.0
 40
26.30000000000019
100
AcDbArc
 50
64.4239988319
 51
115.3158291571
  0
LINE
  5
1AD
330
1F
100
AcDbEntity
  8
0
  6
SLD-Сплошная
 62
     7
370
    25
100
AcDbLine
 10
95.0264807681
 20
145.4426077521
 30
0.0
 11
99.8890122612
 21
145.4426077521
 31
0.0
  0
ARC
  5
1AE
330
1F
100
AcDbEntity
  8
0
  6
SLD-Сплошная
 62
     7
370
    25
100
AcDbCircle
 10
68.0392084944
 20
149.4426077516
 30
0.0
 40
32.10000000000009
100
AcDbArc
 50
7.1582685185
 51
57.1679594442
  0
ARC
  5
1AF
330
1F
100
AcDbEntity
  8
0
  6
SLD-Сплошная
 62
     7
370
    25
100
AcDbCircle
 10
68.0392084944
 20
149.4426077516
 30
0.0
 40
32.10000000000002
100
AcDbArc
 50
122.6032590123
 51
172.8417314815
  0
LINE
  5
1B0
330
1F
100
AcDbEntity
  8
0
  6
SLD-Сплошная
 62
     7
370
    25
100
AcDbLine
 10
41.0519362204
 20
153.4426077516
 30
0.0
 11
36.1894047273
 21
153.4426077516
 31
0.0
  0
ARC
  5
1B1
330
1F
100
AcDbEntity
  8
0
  6
SLD-Сплошная
 62
     7
370
    25
100
AcDbCircle
 10
68.0392084941
 20
149.4426077521
 30
0.0
 40
32.10000000000001
100
AcDbArc
 50
187.1582685193
 51
352.8417314815
  0
ARC
  5
1B2
330
1F
100
AcDbEntity
  8
0
  6
SLD-Сплошная
 62
     7
370
    25
100
AcDbCircle
 10
68.0392084943
 20
149.4426077519
 30
0.0
 40
35.85000000000001
100
AcDbArc
 50
180.0
 51
60.9570587067
  0
ARC
  5
1B3
330
1F
100
AcDbEntity
  8
0
  6
SLD-Сплошная
 62
     7
370
    25
100
AcDbCircle
 10
68.0392084943
 20
149.4426077519
 30
0.0
 40
35.85000000000001
100
AcDbArc
 50
118.8459902759
 51
180.0
  0
ARC
  5
1B4
330
1F
100
AcDbEntity
  8
0
  6
SLD-Сплошная
 62
     7
370
    25
100
AcDbCircle
 10
68.0392084944
 20
149.4426077514
 30
0.0
 40
27.28209788100039
100
AcDbArc
 50
171.5691137618
 51
188.4308862372
  0
LINE
  5
1B5
330
1F
100
AcDbEntity
  8
0
  6
SLD-Сплошная
 62
     7
370
    25
100
AcDbLine
 10
41.0519362204
 20
145.4426077516
 30
0.0
 11
36.1894047273
 21
145.4426077516
 31
0.0
  0
ARC
  5
1B6
330
1F
100
AcDbEntity
  8
0
  6
SLD-Сплошная
 62
     7
370
    25
100
AcDbCircle
 10
68.0392084942
 20
149.4426077523
 30
0.0
 40
27.2820978810004
100
AcDbArc
 50
351.5691137618
 51
8.4308862372
  0
LINE
  5
1B7
330
1F
100
AcDbEntity
  8
0
  6
SLD-Сплошная
 62
     7
370
    25
100
AcDbLine
 10
95.0264807681
 20
153.4426077521
 30
0.0
 11
99.8890122614
 21
153.4426077516
 31
0.0
  0
ARC
  5
1B8
330
1F
100
AcDbEntity
  8
0
  6
SLD-Сплошная
 62
     7
370
    25
100
AcDbCircle
 10
68.0392084941
 20
149.4426077521
 30
0.0
 40
31.95575512491817
100
AcDbArc
 50
7.1907505104
 51
57.0009235746
  0
ARC
  5
1B9
330
1F
100
AcDbEntity
  8
0
  6
SLD-Сплошная
 62
     7
370
    25
100
AcDbCircle
 10
68.0392084941
 20
149.4426077521
 30
0.0
 40
31.95575512491815
100
AcDbArc
 50
187.1907505112
 51
352.8092494896
  0
ARC
  5
1BA
330
1F
100
AcDbEntity
  8
0
  6
SLD-Сплошная
 62
     7
370
    25
100
AcDbCircle
 10
68.0392084941
 20
149.4426077521
 30
0.0
 40
31.95575512491816
100
AcDbArc
 50
122.7688318834
 51
172.8092494904
  0
ARC
  5
1BB
330
1F
100
AcDbEntity
  8
0
  6
SLD-Сплошная
 62
     7
370
    25
100
AcDbCircle
 10
32.239208494
 20
149.4426077516
 30
0.0
 40
2.000000000001706
100
AcDbArc
 50
148.5532910086
 51
211.446708991
  0
ARC
  5
1BC
330
1F
100
AcDbEntity
  8
0
  6
SLD-Сплошная
 62
     7
370
    25
100
AcDbCircle
 10
30.9595198342
 20
148.6600498089
 30
0.0
 40
0.5000000000037768
100
AcDbArc
 50
211.4467089914
 51
262.5509273175
  0
LINE
  5
1BD
330
1F
100
AcDbEntity
  8
0
  6
SLD-Сплошная
 62
     7
370
    25
100
AcDbLine
 10
32.2186022471
 20
147.9911711916
 30
0.0
 11
30.8946973863
 21
148.164269565
 31
0.0
  0
ARC
  5
1BE
330
1F
100
AcDbEntity
  8
0
  6
SLD-Сплошная
 62
     7
370
    25
100
AcDbCircle
 10
30.9595198342
 20
150.2251656944
 30
0.0
 40
0.5000000000039594
100
AcDbArc
 50
97.4490726823
 51
148.553291008
  0
LINE
  5
1BF
330
1F
100
AcDbEntity
  8
0
  6
SLD-Сплошная
 62
     7
370
    25
100
AcDbLine
 10
30.8946973863
 20
150.7209459383
 30
0.0
 11
32.2186022471
 21
150.8940443116
 31
0.0
  0
ARC
  5
1C0
330
1F
100
AcDbEntity
  8
0
  6
SLD-Сплошная
 62
     7
370
    25
100
AcDbCircle
 10
103.8392084945
 20
149.4426077521
 30
0.0
 40
2.000000000001682
100
AcDbArc
 50
328.5532910086
 51
31.446708991
  0
LINE
  5
1C1
330
1F
100
AcDbEntity
  8
0
  6
SLD-Сплошная
 62
     7
370
    25
100
AcDbLine
 10
105.1837196022
 20
148.1642695654
 30
0.0
 11
103.8598147414
 21
147.9911711921
 31
0.0
  0
ARC
  5
1C2
330
1F
100
AcDbEntity
  8
0
  6
SLD-Сплошная
 62
     7
370
    25
100
AcDbCircle
 10
105.1188971544
 20
148.6600498093
 30
0.0
 40
0.500000000003988
100
AcDbArc
 50
277.4490726823
 51
328.553291008
  0
ARC
  5
1C3
330
1F
100
AcDbEntity
  8
0
  6
SLD-Сплошная
 62
     7
370
    25
100
AcDbCircle
 10
105.1188971544
 20
150.2251656948
 30
0.0
 40
0.5000000000037403
100
AcDbArc
 50
31.4467089914
 51
82.5509273175
  0
LINE
  5
1C4
330
1F
100
AcDbEntity
  8
0
  6
SLD-Сплошная
 62
     7
370
    25
100
AcDbLine
 10
103.8598147414
 20
150.8940443121
 30
0.0
 11
105.1837196022
 21
150.7209459387
 31
0.0
  0
SPLINE
  5
1C5
330
1F
100
AcDbEntity
  8
0
  6
SLD-Сплошная
 62
     7
370
    25
100
AcDbSpline
210
0.0
220
0.0
230
1.0
 70
     8
 71
     3
 72
    16
 73
    12
 74
     0
 42
0.00000001
 43
0.00000001
 40
0.0
 40
0.0
 40
0.0
 40
0.0
 40
0.1800500746102335
 40
0.311079876458921
 40
0.3633873766616808
 40
0.4096009232477001
 40
0.4521757463712275
 40
0.4936876091670594
 40
0.5823186940874707
 40
0.6903910017090799
 40
1.0
 40
1.0
 40
1.0
 40
1.0
 10
302.6613320290822
 20
148.3958188208878
 30
0.0
 10
302.679242575985
 20
148.3783255489573
 30
0.0
 10
302.7101873602619
 20
148.3481017077134
 30
0.0
 10
302.7603799549161
 20
148.3059299332508
 30
0.0
 10
302.7942412438969
 20
148.2779964608384
 30
0.0
 10
302.8150382455547
 20
148.2608346136406
 30
0.0
 10
302.8328414115521
 20
148.2459177302723
 30
0.0
 10
302.8527838949746
 20
148.2286988955851
 30
0.0
 10
302.8702715597782
 20
148.2122359118476
 30
0.0
 10
302.8843940860517
 20
148.1948640856211
 30
0.0
 10
302.8896625571965
 20
148.1918057103
 30
0.0
 10
302.8935678458714
 20
148.1895386696014
 30
0.0
  0
SPLINE
  5
1C6
330
1F
100
AcDbEntity
  8
0
  6
SLD-Сплошная
 62
     7
370
    25
100
AcDbSpline
210
0.0
220
0.0
230
1.0
 70
     8
 71
     3
 72
    16
 73
    12
 74
     0
 42
0.00000001
 43
0.00000001
 40
0.0
 40
0.0
 40
0.0
 40
0.0
 40
0.1800500746100862
 40
0.311079876458808
 40
0.3633873766615975
 40
0.4096009232476884
 40
0.4521757463712641
 40
0.4936876091671555
 40
0.5823186940877163
 40
0.6903910017093898
 40
1.0
 40
1.0
 40
1.0
 40
1.0
 10
377.6235255762465
 20
150.4893966828311
 30
0.0
 10
377.6056150293437
 20
150.5068899547616
 30
0.0
 10
377.5746702450668
 20
150.5371137960056
 30
0.0
 10
377.5244776504126
 20
150.5792855704682
 30
0.0
 10
377.4906163614318
 20
150.6072190428806
 30
0.0
 10
377.469819359774
 20
150.6243808900785
 30
0.0
 10
377.4520161937766
 20
150.6392977734467
 30
0.0
 10
377.432073710354
 20
150.656516608134
 30
0.0
 10
377.4145860455502
 20
150.6729795918715
 30
0.0
 10
377.4004635192765
 20
150.690351418098
 30
0.0
 10
377.3951950481315
 20
150.6934097934191
 30
0.0
 10
377.3912897594565
 20
150.6956768341177
 30
0.0
  0
SPLINE
  5
1C7
330
1F
100
AcDbEntity
  8
0
  6
SLD-Сплошная
 62
     7
370
    25
100
AcDbSpline
210
0.0
220
0.0
230
1.0
 70
     8
 71
     3
 72
    16
 73
    12
 74
     0
 42
0.00000001
 43
0.00000001
 40
0.0
 40
0.0
 40
0.0
 40
0.0
 40
0.3102941119122045
 40
0.4184358720376827
 40
0.5069724151364989
 40
0.548386832265835
 40
0.5908461616847217
 40
0.6369414768074393
 40
0.6891404332259258
 40
0.8200095935650205
 40
1.0
 40
1.0
 40
1.0
 40
1.0
 10
377.3919053202193
 20
148.1897604487536
 30
0.0
 10
377.3957546891174
 20
148.1920251517877
 30
0.0
 10
377.4009456159505
 20
148.1950791349365
 30
0.0
 10
377.4147941364124
 20
148.2124486060701
 30
0.0
 10
377.4321375604159
 20
148.2289082154886
 30
0.0
 10
377.4520016362446
 20
148.2461281681546
 30
0.0
 10
377.4697542864619
 20
148.261038083658
 30
0.0
 10
377.4905122262477
 20
148.2781868791459
 30
0.0
 10
377.5243433975101
 20
148.3060983368558
 30
0.0
 10
377.5745308266069
 20
148.348213473467
 30
0.0
 10
377.6054771287602
 20
148.378362041409
 30
0.0
 10
377.6233953082134
 20
148.3958183257809
 30
0.0
  0
SPLINE
  5
1C8
330
1F
100
AcDbEntity
  8
0
  6
SLD-Сплошная
 62
     7
370
    25
100
AcDbSpline
210
0.0
220
0.0
230
1.0
 70
     8
 71
     3
 72
    16
 73
    12
 74
     0
 42
0.00000001
 43
0.00000001
 40
0.0
 40
0.0
 40
0.0
 40
0.0
 40
0.3102941119118452
 40
0.4184358720374499
 40
0.506972415136449
 40
0.5483868322658835
 40
0.5908461616848393
 40
0.6369414768075968
 40
0.6891404332260938
 40
0.8200095935651629
 40
1.0
 40
1.0
 40
1.0
 40
1.0
 10
302.8929522851105
 20
150.6954550549656
 30
0.0
 10
302.8891029162123
 20
150.6931903519315
 30
0.0
 10
302.8839119893789
 20
150.6901363687826
 30
0.0
 10
302.8700634689167
 20
150.672766897649
 30
0.0
 10
302.852720044913
 20
150.6563072882305
 30
0.0
 10
302.8328559690843
 20
150.6390873355645
 30
0.0
 10
302.815103318867
 20
150.624177420061
 30
0.0
 10
302.7943453790812
 20
150.6070286245731
 30
0.0
 10
302.7605142078187
 20
150.5791171668632
 30
0.0
 10
302.7103267787219
 20
150.537002030252
 30
0.0
 10
302.6793804765686
 20
150.5068534623099
 30
0.0
 10
302.6614622971153
 20
150.4893971779381
 30
0.0
  0
LINE
  5
1C9
330
1F
100
AcDbEntity
  8
0
  6
SLD-Сплошная
 62
     7
370
    25
100
AcDbLine
 10
351.3885091767
 20
193.2541481595
 30
0.0
 11
328.7885091767
 21
193.2541481595
 31
0.0
  0
LINE
  5
1CA
330
1F
100
AcDbEntity
  8
0
  6
SLD-Сплошная
 62
     7
370
    25
100
AcDbLine
 10
322.7385091767
 20
180.7846893938
 30
0.0
 11
322.7385091767
 21
187.8055782611
 31
0.0
  0
LINE
  5
1CB
330
1F
100
AcDbEntity
  8
0
  6
SLD-Сплошная
 62
     7
370
    25
100
AcDbLine
 10
328.7885091767
 20
187.5916702097
 30
0.0
 11
328.7885091767
 21
187.8055782611
 31
0.0
  0
LINE
  5
1CC
330
1F
100
AcDbEntity
  8
0
  6
SLD-Сплошная
 62
     7
370
    25
100
AcDbLine
 10
357.4385091767
 20
180.8443291011
 30
0.0
 11
357.4385091767
 21
187.8055782611
 31
0.0
  0
LINE
  5
1CD
330
1F
100
AcDbEntity
  8
0
  6
SLD-Сплошная
 62
     7
370
    25
100
AcDbLine
 10
351.3885091767
 20
187.5916702097
 30
0.0
 11
351.3885091767
 21
187.8055782611
 31
0.0
  0
LINE
  5
1CE
330
1F
100
AcDbEntity
  8
0
  6
SLD-Сплошная
 62
     7
370
    25
100
AcDbLine
 10
322.7385091767
 20
193.3055782611
 30
0.0
 11
328.7885091767
 21
193.3055782611
 31
0.0
  0
LINE
  5
1CF
330
1F
100
AcDbEntity
  8
0
  6
SLD-Сплошная
 62
     7
370
    25
100
AcDbLine
 10
322.7385091767
 20
193.3055782611
 30
0.0
 11
322.7385091767
 21
187.8055782611
 31
0.0
  0
LINE
  5
1D0
330
1F
100
AcDbEntity
  8
0
  6
SLD-Сплошная
 62
     7
370
    25
100
AcDbLine
 10
328.7885091767
 20
187.8055782611
 30
0.0
 11
328.7885091767
 21
193.3055782611
 31
0.0
  0
LINE
  5
1D1
330
1F
100
AcDbEntity
  8
0
  6
SLD-Сплошная
 62
     7
370
    25
100
AcDbLine
 10
351.3885091767
 20
193.3055782611
 30
0.0
 11
357.4385091767
 21
193.3055782611
 31
0.0
  0
LINE
  5
1D2
330
1F
100
AcDbEntity
  8
0
  6
SLD-Сплошная
 62
     7
370
    25
100
AcDbLine
 10
357.4385091767
 20
193.3055782611
 30
0.0
 11
357.4385091767
 21
187.8055782611
 31
0.0
  0
LINE
  5
1D3
330
1F
100
AcDbEntity
  8
0
  6
SLD-Сплошная
 62
     7
370
    25
100
AcDbLine
 10
351.3885091767
 20
187.8055782611
 30
0.0
 11
351.3885091767
 21
193.3055782611
 31
0.0
  0
ARC
  5
1D4
330
1F
100
AcDbEntity
  8
0
  6
SLD-Сплошная
 62
     7
370
    25
100
AcDbCircle
 10
340.1424288027
 20
149.442607751
 30
0.0
 40
21.80000000000157
100
AcDbArc
 50
90.0
 51
270.0
  0
ARC
  5
1D5
330
1F
100
AcDbEntity
  8
0
  6
SLD-Сплошная
 62
     7
370
    25
100
AcDbCircle
 10
340.1424288027
 20
149.442607751
 30
0.0
 40
21.80000000000157
100
AcDbArc
 50
270.0
 51
90.0
  0
SPLINE
  5
1D6
330
1F
100
AcDbEntity
  8
0
  6
SLD-Сплошная
 62
     7
370
    25
100
AcDbSpline
210
0.0
220
0.0
230
1.0
 70
     8
 71
     3
 72
    14
 73
    10
 74
     0
 42
0.00000001
 43
0.00000001
 40
0.0
 40
0.0
 40
0.0
 40
0.0
 40
0.25
 40
0.25
 40
0.5
 40
0.5
 40
0.75
 40
0.75
 40
1.0
 40
1.0
 40
1.0
 40
1.0
 10
304.5896471546692
 20
148.4083385025806
 30
0.0
 10
304.4447718651421
 20
148.4491181893517
 30
0.0
 10
304.2946829459075
 20
148.4608440871925
 30
0.0
 10
303.9631049947243
 20
148.4559110182994
 30
0.0
 10
303.7816159627687
 20
148.4392520515687
 30
0.0
 10
303.3662649328257
 20
148.4072719668061
 30
0.0
 10
303.1334751982225
 20
148.3985558308282
 30
0.0
 10
302.7700824231432
 20
148.3918185041808
 30
0.0
 10
302.6394793826628
 20
148.3937973135082
 30
0.0
 10
302.6361772559396
 20
148.3991971617396
 30
0.0
  0
SPLINE
  5
1D7
330
1F
100
AcDbEntity
  8
0
  6
SLD-Сплошная
 62
     7
370
    25
100
AcDbSpline
210
0.0
220
0.0
230
1.0
 70
     8
 71
     3
 72
    10
 73
     6
 74
     0
 42
0.00000001
 43
0.00000001
 40
0.3339675184135567
 40
0.3339675184135567
 40
0.3339675184135567
 40
0.3339675184135567
 40
0.5
 40
0.5
 40
0.6660324815789996
 40
0.6660324815789996
 40
0.6660324815789996
 40
0.6660324815789996
 10
302.6378009699693
 20
150.4850329081706
 30
0.0
 10
302.4481327741832
 20
150.1724453689176
 30
0.0
 10
302.3424288075994
 20
149.8084399230241
 30
0.0
 10
302.3424288075981
 20
149.0767755811477
 30
0.0
 10
302.4481327742135
 20
148.7127701352332
 30
0.0
 10
302.6378009699856
 20
148.4001825959884
 30
0.0
  0
SPLINE
  5
1D8
330
1F
100
AcDbEntity
  8
0
  6
SLD-Сплошная
 62
     7
370
    25
100
AcDbSpline
210
0.0
220
0.0
230
1.0
 70
     8
 71
     3
 72
    14
 73
    10
 74
     0
 42
0.00000001
 43
0.00000001
 40
0.0
 40
0.0
 40
0.0
 40
0.0
 40
0.25
 40
0.25
 40
0.5
 40
0.5
 40
0.75
 40
0.75
 40
1.0
 40
1.0
 40
1.0
 40
1.0
 10
302.6361772559391
 20
150.4860183424054
 30
0.0
 10
302.6394887761689
 20
150.4914335514954
 30
0.0
 10
302.770840820786
 20
150.4933625476822
 30
0.0
 10
303.1352327019912
 20
150.4865480994625
 30
0.0
 10
303.3682725385754
 20
150.4778046550604
 30
0.0
 10
303.7816467469041
 20
150.445945310871
 30
0.0
 10
303.9633528366518
 20
150.4294387906205
 30
0.0
 10
304.2953872522961
 20
150.4246476110681
 30
0.0
 10
304.4457155781934
 20
150.4363629517659
 30
0.0
 10
304.5896471546687
 20
150.4768770015768
 30
0.0
  0
SPLINE
  5
1D9
330
1F
100
AcDbEntity
  8
0
  6
SLD-Сплошная
 62
     7
370
    25
100
AcDbSpline
210
0.0
220
0.0
230
1.0
 70
     8
 71
     3
 72
    14
 73
    10
 74
     0
 42
0.00000001
 43
0.00000001
 40
0.0
 40
0.0
 40
0.0
 40
0.0
 40
0.25
 40
0.25
 40
0.5
 40
0.5
 40
0.75
 40
0.75
 40
1.0
 40
1.0
 40
1.0
 40
1.0
 10
375.6952104506596
 20
150.4768770011386
 30
0.0
 10
375.8400857401867
 20
150.4360973143676
 30
0.0
 10
375.9901746594212
 20
150.4243714165268
 30
0.0
 10
376.3217526106045
 20
150.4293044854199
 30
0.0
 10
376.50324164256
 20
150.4459634521506
 30
0.0
 10
376.918592672503
 20
150.4779435369131
 30
0.0
 10
377.1513824071062
 20
150.4866596728911
 30
0.0
 10
377.5147751821856
 20
150.4933969995382
 30
0.0
 10
377.6453782226659
 20
150.4914181902108
 30
0.0
 10
377.6486803493892
 20
150.4860183419792
 30
0.0
  0
SPLINE
  5
1DA
330
1F
100
AcDbEntity
  8
0
  6
SLD-Сплошная
 62
     7
370
    25
100
AcDbSpline
210
0.0
220
0.0
230
1.0
 70
     8
 71
     3
 72
    10
 73
     6
 74
     0
 42
0.00000001
 43
0.00000001
 40
0.3339675184135565
 40
0.3339675184135565
 40
0.3339675184135565
 40
0.3339675184135565
 40
0.5
 40
0.5
 40
0.6660324815790004
 40
0.6660324815790004
 40
0.6660324815790004
 40
0.6660324815790004
 10
377.6470566353595
 20
148.4001825955482
 30
0.0
 10
377.8367248311455
 20
148.7127701348012
 30
0.0
 10
377.9424287977295
 20
149.0767755806947
 30
0.0
 10
377.9424287977307
 20
149.8084399225711
 30
0.0
 10
377.8367248311152
 20
150.1724453684856
 30
0.0
 10
377.6470566353432
 20
150.4850329077304
 30
0.0
  0
SPLINE
  5
1DB
330
1F
100
AcDbEntity
  8
0
  6
SLD-Сплошная
 62
     7
370
    25
100
AcDbSpline
210
0.0
220
0.0
230
1.0
 70
     8
 71
     3
 72
    14
 73
    10
 74
     0
 42
0.00000001
 43
0.00000001
 40
0.0
 40
0.0
 40
0.0
 40
0.0
 40
0.25
 40
0.25
 40
0.5
 40
0.5
 40
0.75
 40
0.75
 40
1.0
 40
1.0
 40
1.0
 40
1.0
 10
377.6486803493897
 20
148.3991971613134
 30
0.0
 10
377.6453688291599
 20
148.3937819522235
 30
0.0
 10
377.5140167845428
 20
148.3918529560368
 30
0.0
 10
377.1496249033376
 20
148.3986674042566
 30
0.0
 10
376.9165850667534
 20
148.4074108486588
 30
0.0
 10
376.5032108584247
 20
148.4392701928483
 30
0.0
 10
376.321504768677
 20
148.4557767130987
 30
0.0
 10
375.9894703530327
 20
148.4605678926512
 30
0.0
 10
375.8391420271354
 20
148.4488525519534
 30
0.0
 10
375.69521045066
 20
148.4083385021425
 30
0.0
  0
SPLINE
  5
1DC
330
1F
100
AcDbEntity
  8
0
  6
SLD-Сплошная
 62
     7
370
    25
100
AcDbSpline
210
0.0
220
0.0
230
1.0
 70
     8
 71
     3
 72
    21
 73
    17
 74
     0
 42
0.00000001
 43
0.00000001
 40
0.0
 40
0.0
 40
0.0
 40
0.0
 40
0.0265871841974233
 40
0.0646095822239702
 40
0.1418015986932503
 40
0.2118146570311416
 40
0.2786463879710189
 40
0.3375367354394763
 40
0.4240278382843879
 40
0.4620358214667918
 40
0.4996727423477215
 40
0.5289302275938078
 40
0.5662258494396323
 40
0.7752696732459621
 40
0.9001805141547956
 40
1.0
 40
1.0
 40
1.0
 40
1.0
 10
302.9979188084897
 20
148.1642777368526
 30
0.0
 10
302.9990856931157
 20
148.164122213232
 30
0.0
 10
303.0019213423378
 20
148.1637442748961
 30
0.0
 10
303.0165743158754
 20
148.1618308016258
 30
0.0
 10
303.0544231186986
 20
148.1568866943221
 30
0.0
 10
303.131357445409
 20
148.1468345463022
 30
0.0
 10
303.217444674166
 20
148.1356244207198
 30
0.0
 10
303.3254238276228
 20
148.1214920670476
 30
0.0
 10
303.4268954907454
 20
148.1081915910107
 30
0.0
 10
303.5185116262252
 20
148.0962075817444
 30
0.0
 10
303.5782831490313
 20
148.0884061542184
 30
0.0
 10
303.6384535740432
 20
148.0805298327994
 30
0.0
 10
303.7977102591964
 20
148.0596996643778
 30
0.0
 10
304.012623863552
 20
148.0315918907546
 30
0.0
 10
304.2609384933564
 20
147.9991455699841
 30
0.0
 10
304.3889784089058
 20
147.9824089627439
 30
0.0
 10
304.4458504774086
 20
147.9749749881948
 30
0.0
  0
SPLINE
  5
1DD
330
1F
100
AcDbEntity
  8
0
  6
SLD-Сплошная
 62
     7
370
    25
100
AcDbSpline
210
0.0
220
0.0
230
1.0
 70
     8
 71
     3
 72
    21
 73
    17
 74
     0
 42
0.00000001
 43
0.00000001
 40
0.0
 40
0.0
 40
0.0
 40
0.0
 40
0.026587184197425
 40
0.0646095822239594
 40
0.1418015986932165
 40
0.2118146570311108
 40
0.2786463879709829
 40
0.3375367354394445
 40
0.4240278382843731
 40
0.4620358214667815
 40
0.4996727423477094
 40
0.5289302275937973
 40
0.5662258494396122
 40
0.7752696732459563
 40
0.9001805141547917
 40
0.9999999999999999
 40
0.9999999999999999
 40
0.9999999999999999
 40
0.9999999999999999
 10
377.2869387968391
 20
150.7209377668662
 30
0.0
 10
377.2857719122131
 20
150.7210932904868
 30
0.0
 10
377.282936262991
 20
150.7214712288228
 30
0.0
 10
377.2682832894534
 20
150.7233847020931
 30
0.0
 10
377.2304344866302
 20
150.7283288093969
 30
0.0
 10
377.1535001599198
 20
150.7383809574168
 30
0.0
 10
377.0674129311628
 20
150.7495910829992
 30
0.0
 10
376.959433777706
 20
150.7637234366714
 30
0.0
 10
376.8579621145834
 20
150.7770239127084
 30
0.0
 10
376.7663459791036
 20
150.7890079219747
 30
0.0
 10
376.7065744562974
 20
150.7968093495007
 30
0.0
 10
376.6464040312856
 20
150.8046856709196
 30
0.0
 10
376.4871473461324
 20
150.8255158393413
 30
0.0
 10
376.2722337417768
 20
150.8536236129645
 30
0.0
 10
376.0239191119724
 20
150.8860699337349
 30
0.0
 10
375.8958791964229
 20
150.9028065409751
 30
0.0
 10
375.8390071279201
 20
150.9102405155243
 30
0.0
  0
SPLINE
  5
1DE
330
1F
100
AcDbEntity
  8
0
  6
SLD-Сплошная
 62
     7
370
    25
100
AcDbSpline
210
0.0
220
0.0
230
1.0
 70
     8
 71
     3
 72
    26
 73
    22
 74
     0
 42
0.00000001
 43
0.00000001
 40
0.0
 40
0.0
 40
0.0
 40
0.0
 40
0.0654253328429437
 40
0.1459392030034604
 40
0.289733144531986
 40
0.3594654243251257
 40
0.3963411414602174
 40
0.4474510373522186
 40
0.4822840154841012
 40
0.5058000374435994
 40
0.5744701447408255
 40
0.6088675348862982
 40
0.6392056179055295
 40
0.6858029288229325
 40
0.7298936150394498
 40
0.7824712938592628
 40
0.8325814209087326
 40
0.882179310252901
 40
0.9361021981773887
 40
0.9716035821242371
 40
1.0
 40
1.0
 40
1.0
 40
1.0
 10
375.8390083165056
 20
147.9749657592024
 30
0.0
 10
375.8764011219512
 20
147.9798533807026
 30
0.0
 10
375.9598103456826
 20
147.9907558179594
 30
0.0
 10
376.125740187409
 20
148.0124429036353
 30
0.0
 10
376.2948258925646
 20
148.0345524329838
 30
0.0
 10
376.4397093517773
 20
148.0534957232147
 30
0.0
 10
376.5311860782861
 20
148.065456324976
 30
0.0
 10
376.6023941057005
 20
148.0747648223209
 30
0.0
 10
376.6658406589605
 20
148.0830663005083
 30
0.0
 10
376.7392566947961
 20
148.0926704170757
 30
0.0
 10
376.8109634998694
 20
148.1020332829305
 30
0.0
 10
376.8858303638092
 20
148.1118373528642
 30
0.0
 10
376.9468449534985
 20
148.1198337343257
 30
0.0
 10
377.0110826971823
 20
148.1282568376049
 30
0.0
 10
377.0803921072758
 20
148.1372882355445
 30
0.0
 10
377.1456485336241
 20
148.1458134066143
 30
0.0
 10
377.2065338361986
 20
148.1538155677119
 30
0.0
 10
377.2528725794556
 20
148.1598778021135
 30
0.0
 10
377.2762825398003
 20
148.1628926365444
 30
0.0
 10
377.2855238309024
 20
148.1640891172
 30
0.0
 10
377.2865038127569
 20
148.1642170761299
 30
0.0
 10
377.2869393202934
 20
148.1642739415484
 30
0.0
  0
SPLINE
  5
1DF
330
1F
100
AcDbEntity
  8
0
  6
SLD-Сплошная
 62
     7
370
    25
100
AcDbSpline
210
0.0
220
0.0
230
1.0
 70
     8
 71
     3
 72
    26
 73
    22
 74
     0
 42
0.00000001
 43
0.00000001
 40
0.0
 40
0.0
 40
0.0
 40
0.0
 40
0.0654253328429406
 40
0.1459392030034758
 40
0.2897331445319818
 40
0.3594654243251211
 40
0.3963411414602202
 40
0.4474510373522207
 40
0.482284015484099
 40
0.5058000374436039
 40
0.5744701447408335
 40
0.6088675348863194
 40
0.6392056179055381
 40
0.6858029288229482
 40
0.729893615039457
 40
0.7824712938592647
 40
0.8325814209087351
 40
0.8821793102528999
 40
0.9361021981773825
 40
0.9716035821242138
 40
1.0
 40
1.0
 40
1.0
 40
1.0
 10
304.4458492888231
 20
150.9102497445166
 30
0.0
 10
304.4084564833776
 20
150.9053621230164
 30
0.0
 10
304.3250472596462
 20
150.8944596857596
 30
0.0
 10
304.1591174179197
 20
150.8727726000838
 30
0.0
 10
303.9900317127641
 20
150.8506630707353
 30
0.0
 10
303.8451482535515
 20
150.8317197805044
 30
0.0
 10
303.7536715270426
 20
150.8197591787431
 30
0.0
 10
303.6824634996282
 20
150.8104506813982
 30
0.0
 10
303.6190169463682
 20
150.8021492032108
 30
0.0
 10
303.5456009105328
 20
150.7925450866433
 30
0.0
 10
303.4738941054594
 20
150.7831822207885
 30
0.0
 10
303.3990272415195
 20
150.7733781508548
 30
0.0
 10
303.3380126518302
 20
150.7653817693933
 30
0.0
 10
303.2737749081464
 20
150.7569586661141
 30
0.0
 10
303.2044654980529
 20
150.7479272681745
 30
0.0
 10
303.1392090717047
 20
150.7394020971047
 30
0.0
 10
303.0783237691302
 20
150.731399936007
 30
0.0
 10
303.0319850258732
 20
150.7253377016054
 30
0.0
 10
303.0085750655284
 20
150.7223228671744
 30
0.0
 10
302.9993337744264
 20
150.7211263865189
 30
0.0
 10
302.9983537925718
 20
150.7209984275889
 30
0.0
 10
302.9979182850355
 20
150.7209415621704
 30
0.0
  0
SPLINE
  5
1E0
330
1F
100
AcDbEntity
  8
0
  6
SLD-Сплошная
 62
     7
370
    25
100
AcDbSpline
210
0.0
220
0.0
230
1.0
 70
     8
 71
     3
 72
     8
 73
     4
 74
     0
 42
0.00000001
 43
0.00000001
 40
0.0
 40
0.0
 40
0.0
 40
0.0
 40
1.0
 40
1.0
 40
1.0
 40
1.0
 10
306.9467047761071
 20
147.6735411197277
 30
0.0
 10
306.7272047481483
 20
147.7517521290328
 30
0.0
 10
305.7894884443403
 20
148.0451778822741
 30
0.0
 10
304.5896260355157
 20
148.4083585448626
 30
0.0
  0
SPLINE
  5
1E1
330
1F
100
AcDbEntity
  8
0
  6
SLD-Сплошная
 62
     7
370
    25
100
AcDbSpline
210
0.0
220
0.0
230
1.0
 70
     8
 71
     3
 72
     8
 73
     4
 74
     0
 42
0.00000001
 43
0.00000001
 40
0.0
 40
0.0
 40
0.0
 40
0.0
 40
1.0
 40
1.0
 40
1.0
 40
1.0
 10
373.3381528292217
 20
151.211674383991
 30
0.0
 10
373.5576528571806
 20
151.1334633746862
 30
0.0
 10
374.4953691609884
 20
150.840037621445
 30
0.0
 10
375.6952315698131
 20
150.4768569588566
 30
0.0
  0
SPLINE
  5
1E2
330
1F
100
AcDbEntity
  8
0
  6
SLD-Сплошная
 62
     7
370
    25
100
AcDbSpline
210
0.0
220
0.0
230
1.0
 70
     8
 71
     3
 72
     8
 73
     4
 74
     0
 42
0.00000001
 43
0.00000001
 40
0.0
 40
0.0
 40
0.0
 40
0.0
 40
1.0
 40
1.0
 40
1.0
 40
1.0
 10
366.6466357598005
 20
148.2035016755892
 30
0.0
 10
366.8754311688425
 20
148.1806257533054
 30
0.0
 10
367.1044267980516
 20
148.1597957682264
 30
0.0
 10
367.3335911792435
 20
148.141025958502
 30
0.0
  0
SPLINE
  5
1E3
330
1F
100
AcDbEntity
  8
0
  6
SLD-Сплошная
 62
     7
370
    25
100
AcDbSpline
210
0.0
220
0.0
230
1.0
 70
     8
 71
     3
 72
     8
 73
     4
 74
     0
 42
0.00000001
 43
0.00000001
 40
0.0
 40
0.0
 40
0.0
 40
0.0
 40
1.0
 40
1.0
 40
1.0
 40
1.0
 10
375.6952224674403
 20
148.4083494926409
 30
0.0
 10
374.2968923032184
 20
147.9835734132297
 30
0.0
 10
373.2545993773991
 20
147.6560630694944
 30
0.0
 10
373.2910482085393
 20
147.6530763377617
 30
0.0
  0
LINE
  5
1E4
330
1F
100
AcDbEntity
  8
0
  6
SLD-Сплошная
 62
     7
370
    25
100
AcDbLine
 10
367.3335906298
 20
148.1410260035
 30
0.0
 11
373.2910480549
 21
147.6530744028
 31
0.0
  0
SPLINE
  5
1E5
330
1F
100
AcDbEntity
  8
0
  6
SLD-Сплошная
 62
     7
370
    25
100
AcDbSpline
210
0.0
220
0.0
230
1.0
 70
     8
 71
     3
 72
     8
 73
     4
 74
     0
 42
0.00000001
 43
0.00000001
 40
0.0
 40
0.0
 40
0.0
 40
0.0
 40
1.0
 40
1.0
 40
1.0
 40
1.0
 10
313.6382218455283
 20
150.681713828129
 30
0.0
 10
313.4094264364863
 20
150.7045897504129
 30
0.0
 10
313.1804308072772
 20
150.7254197354918
 30
0.0
 10
312.9512664260852
 20
150.7441895452162
 30
0.0
  0
SPLINE
  5
1E6
330
1F
100
AcDbEntity
  8
0
  6
SLD-Сплошная
 62
     7
370
    25
100
AcDbSpline
210
0.0
220
0.0
230
1.0
 70
     8
 71
     3
 72
     8
 73
     4
 74
     0
 42
0.00000001
 43
0.00000001
 40
0.0
 40
0.0
 40
0.0
 40
0.0
 40
1.0
 40
1.0
 40
1.0
 40
1.0
 10
304.5896351378884
 20
150.4768660110783
 30
0.0
 10
305.9879653021104
 20
150.9016420904894
 30
0.0
 10
307.0302582279297
 20
151.2291524342245
 30
0.0
 10
306.9938093967895
 20
151.2321391659569
 30
0.0
  0
LINE
  5
1E7
330
1F
100
AcDbEntity
  8
0
  6
SLD-Сплошная
 62
     7
370
    25
100
AcDbLine
 10
312.9512669756
 20
150.7441895002
 30
0.0
 11
306.9938095504
 21
151.2321411009
 31
0.0
  0
ARC
  5
1E8
330
1F
100
AcDbEntity
  8
0
  6
SLD-Сплошная
 62
     7
370
    25
100
AcDbCircle
 10
306.9529932239
 20
148.151405646
 30
0.0
 40
0.5000000000001031
100
AcDbArc
 50
262.5509273177
 51
274.6824168622
  0
SPLINE
  5
1E9
330
1F
100
AcDbEntity
  8
0
  6
SLD-Сплошная
 62
     7
370
    25
100
AcDbSpline
210
0.0
220
0.0
230
1.0
 70
     8
 71
     3
 72
    20
 73
    16
 74
     0
 42
0.00000001
 43
0.00000001
 40
0.0
 40
0.0
 40
0.0
 40
0.0
 40
0.1415207765744104
 40
0.3073566957931262
 40
0.4883903079021283
 40
0.6707358277737505
 40
0.7538624504308741
 40
0.8146010397663748
 40
0.8630836440263805
 40
0.881177091814688
 40
0.9077773704207338
 40
0.9368877001407135
 40
0.961477507948074
 40
0.9821309475095575
 40
1.0
 40
1.0
 40
1.0
 40
1.0
 10
304.4458479048243
 20
147.9749550825547
 30
0.0
 10
304.5708740168132
 20
147.958608144367
 30
0.0
 10
304.8424073817293
 20
147.923105647636
 30
0.0
 10
305.2704423638536
 20
147.8671413366349
 30
0.0
 10
305.7296468724962
 20
147.8071082154704
 30
0.0
 10
306.1100311947606
 20
147.7573701190965
 30
0.0
 10
306.3812446277184
 20
147.721927810982
 30
0.0
 10
306.5374345031335
 20
147.7015275807934
 30
0.0
 10
306.6354421342836
 20
147.6886845376309
 30
0.0
 10
306.7046447501666
 20
147.6796287835899
 30
0.0
 10
306.757776309967
 20
147.6726795536354
 30
0.0
 10
306.8117259930428
 20
147.6656233384552
 30
0.0
 10
306.8542631121663
 20
147.660059872862
 30
0.0
 10
306.8826739852141
 20
147.6563442548534
 30
0.0
 10
306.8864289822493
 20
147.655853188323
 30
0.0
 10
306.8881707760832
 20
147.6556254020834
 30
0.0
  0
ARC
  5
1EA
330
1F
100
AcDbEntity
  8
0
  6
SLD-Сплошная
 62
     7
370
    25
100
AcDbCircle
 10
373.3318643814
 20
150.7338098577
 30
0.0
 40
0.5000000000001437
100
AcDbArc
 50
82.5509273177
 51
94.6824168622
  0
SPLINE
  5
1EB
330
1F
100
AcDbEntity
  8
0
  6
SLD-Сплошная
 62
     7
370
    25
100
AcDbSpline
210
0.0
220
0.0
230
1.0
 70
     8
 71
     3
 72
    20
 73
    16
 74
     0
 42
0.00000001
 43
0.00000001
 40
0.0
 40
0.0
 40
0.0
 40
0.0
 40
0.1415207765744091
 40
0.3073566957931252
 40
0.4883903079021299
 40
0.6707358277737518
 40
0.7538624504308827
 40
0.8146010397663707
 40
0.8630836440263734
 40
0.8811770918146826
 40
0.9077773704207226
 40
0.9368877001407048
 40
0.9614775079480646
 40
0.9821309475095523
 40
1.0
 40
1.0
 40
1.0
 40
1.0
 10
375.8390097005045
 20
150.9102604211643
 30
0.0
 10
375.7139835885155
 20
150.926607359352
 30
0.0
 10
375.4424502235995
 20
150.9621098560829
 30
0.0
 10
375.0144152414751
 20
151.0180741670841
 30
0.0
 10
374.5552107328327
 20
151.0781072882484
 30
0.0
 10
374.1748264105681
 20
151.1278453846224
 30
0.0
 10
373.9036129776104
 20
151.1632876927368
 30
0.0
 10
373.7474231021953
 20
151.1836879229253
 30
0.0
 10
373.6494154710451
 20
151.1965309660878
 30
0.0
 10
373.5802128551622
 20
151.2055867201288
 30
0.0
 10
373.5270812953618
 20
151.2125359500833
 30
0.0
 10
373.4731316122859
 20
151.2195921652635
 30
0.0
 10
373.4305944931624
 20
151.2251556308566
 30
0.0
 10
373.4021836201147
 20
151.2288712488652
 30
0.0
 10
373.3984286230795
 20
151.2293623153956
 30
0.0
 10
373.3966868292455
 20
151.2295901016352
 30
0.0
  0
SPLINE
  5
1EC
330
1F
100
AcDbEntity
  8
0
  6
SLD-Сплошная
 62
     7
370
    25
100
AcDbSpline
210
0.0
220
0.0
230
1.0
 70
    24
 71
     3
 72
    10
 73
     6
 74
     0
 42
0.00000001
 43
0.00000001
 40
0.0
 40
0.0
 40
0.0
 40
0.0
 40
0.5
 40
0.5
 40
1.0
 40
1.0
 40
1.0
 40
1.0
 10
373.3966868292398
 20
147.6556254016506
 30
0.0
 10
373.3966868300386
 20
147.6556254017579
 30
0.0
 10
373.6614105486838
 20
147.6902375906229
 30
0.0
 10
374.5367149847426
 20
147.8046821995533
 30
0.0
 10
375.1472957021633
 20
147.8845146196159
 30
0.0
 10
375.8390097005064
 20
147.9749550821205
 30
0.0
  0
ARC
  5
1ED
330
1F
100
AcDbEntity
  8
0
  6
SLD-Сплошная
 62
     7
370
    25
100
AcDbCircle
 10
373.3318643814
 20
148.1514056456
 30
0.0
 40
0.5000000000001258
100
AcDbArc
 50
265.3175831382
 51
277.4490726825
  0
SPLINE
  5
1EE
330
1F
100
AcDbEntity
  8
0
  6
SLD-Сплошная
 62
     7
370
    25
100
AcDbSpline
210
0.0
220
0.0
230
1.0
 70
    24
 71
     3
 72
    10
 73
     6
 74
     0
 42
0.00000001
 43
0.00000001
 40
0.0
 40
0.0
 40
0.0
 40
0.0
 40
0.5
 40
0.5
 40
1.0
 40
1.0
 40
1.0
 40
1.0
 10
306.8881707760889
 20
151.229590102068
 30
0.0
 10
306.8881707752902
 20
151.2295901019608
 30
0.0
 10
306.623447056645
 20
151.1949779130959
 30
0.0
 10
305.7481426205861
 20
151.0805333041656
 30
0.0
 10
305.1375619031654
 20
151.0007008841031
 30
0.0
 10
304.4458479048224
 20
150.9102604215985
 30
0.0
  0
ARC
  5
1EF
330
1F
100
AcDbEntity
  8
0
  6
SLD-Сплошная
 62
     7
370
    25
100
AcDbCircle
 10
306.9529932239
 20
150.7338098581
 30
0.0
 40
0.500000000000102
100
AcDbArc
 50
85.3175831382
 51
97.4490726825
  0
SPLINE
  5
1F0
330
1F
100
AcDbEntity
  8
0
  6
SLD-Сплошная
 62
     7
370
    25
100
AcDbSpline
210
0.0
220
0.0
230
1.0
 70
     8
 71
     3
 72
     8
 73
     4
 74
     0
 42
0.00000001
 43
0.00000001
 40
0.0
 40
0.0
 40
0.0
 40
0.0
 40
1.0
 40
1.0
 40
1.0
 40
1.0
 10
312.9512879662493
 20
148.1410277235635
 30
0.0
 10
313.1804498499656
 20
148.1597964544506
 30
0.0
 10
313.4094428403356
 20
148.1806271706066
 30
0.0
 10
313.6382354277749
 20
148.2035056149461
 30
0.0
  0
LINE
  5
1F1
330
1F
100
AcDbEntity
  8
0
  6
SLD-Сплошная
 62
     7
370
    25
100
AcDbLine
 10
306.9938095504
 20
147.6530744033
 30
0.0
 11
312.9512921629
 21
148.1410280669
 31
0.0
  0
SPLINE
  5
1F2
330
1F
100
AcDbEntity
  8
0
  6
SLD-Сплошная
 62
     7
370
    25
100
AcDbSpline
210
0.0
220
0.0
230
1.0
 70
     8
 71
     3
 72
     8
 73
     4
 74
     0
 42
0.00000001
 43
0.00000001
 40
0.0
 40
0.0
 40
0.0
 40
0.0
 40
1.0
 40
1.0
 40
1.0
 40
1.0
 10
367.3335696390795
 20
150.7441877801547
 30
0.0
 10
367.1044077553632
 20
150.7254190492676
 30
0.0
 10
366.8754147649932
 20
150.7045883331116
 30
0.0
 10
366.6466221775539
 20
150.6817098887721
 30
0.0
  0
LINE
  5
1F3
330
1F
100
AcDbEntity
  8
0
  6
SLD-Сплошная
 62
     7
370
    25
100
AcDbLine
 10
373.2910480549
 20
151.2321411005
 30
0.0
 11
367.3335654425
 21
150.7441874368
 31
0.0
  0
SPLINE
  5
1F4
330
1F
100
AcDbEntity
  8
0
  6
SLD-Сплошная
 62
     7
370
    25
100
AcDbSpline
210
0.0
220
0.0
230
1.0
 70
     8
 71
     3
 72
    10
 73
     6
 74
     0
 42
0.00000001
 43
0.00000001
 40
0.0
 40
0.0
 40
0.0
 40
0.0
 40
0.5
 40
0.5
 40
1.0
 40
1.0
 40
1.0
 40
1.0
 10
307.0139595364571
 20
151.2359168081897
 30
0.0
 10
307.1518852506109
 20
151.2367701827745
 30
0.0
 10
307.2880245169417
 20
151.2551325024237
 30
0.0
 10
307.5589233691414
 20
151.3039586331966
 30
0.0
 10
307.6934174832039
 20
151.3348181260282
 30
0.0
 10
307.8274019463723
 20
151.3648080093598
 30
0.0
  0
SPLINE
  5
1F5
330
1F
100
AcDbEntity
  8
0
  6
SLD-Сплошная
 62
     7
370
    25
100
AcDbSpline
210
0.0
220
0.0
230
1.0
 70
     8
 71
     3
 72
    14
 73
    10
 74
     0
 42
0.00000001
 43
0.00000001
 40
0.0
 40
0.0
 40
0.0
 40
0.0
 40
0.0000381661268658
 40
0.0000381661268658
 40
0.0000381661268658
 40
0.0000763301799645
 40
0.0000763301799645
 40
0.0000763301799645
 40
0.0000874201025539
 40
0.0000874201025539
 40
0.0000874201025539
 40
0.0000874201025539
 10
307.0139595364566
 20
151.2359168081933
 30
0.0
 10
307.0012625612198
 20
151.2358435626205
 30
0.0
 10
306.9885658476394
 20
151.235597174042
 30
0.0
 10
306.975874434198
 20
151.2352133274331
 30
0.0
 10
306.963183437804
 20
151.2348294934376
 30
0.0
 10
306.9504962377491
 20
151.2343081509068
 30
0.0
 10
306.9378144584734
 20
151.2336901599564
 30
0.0
 10
306.934129514582
 20
151.2335105903607
 30
0.0
 10
306.9304449592387
 20
151.2333228932615
 30
0.0
 10
306.9267607842557
 20
151.2331281585154
 30
0.0
  0
ARC
  5
1F6
330
1F
100
AcDbEntity
  8
0
  6
SLD-Сплошная
 62
     7
370
    25
100
AcDbCircle
 10
340.1424288028
 20
149.4426077521
 30
0.0
 40
34.25000000000003
100
AcDbArc
 50
145.6731072445
 51
177.2184869925
  0
LINE
  5
1F7
330
1F
100
AcDbEntity
  8
0
  6
SLD-Сплошная
 62
     7
370
    25
100
AcDbLine
 10
310.562669859
 20
169.6974926153
 30
0.0
 11
311.8576244783
 21
168.7566530125
 31
0.0
  0
ARC
  5
1F8
330
1F
100
AcDbEntity
  8
0
  6
SLD-Сплошная
 62
     7
370
    25
100
AcDbCircle
 10
340.1424288027
 20
149.4426077519
 30
0.0
 40
35.84999999999996
100
AcDbArc
 50
142.4015840391
 51
145.5984159603
  0
LINE
  5
1F9
330
1F
100
AcDbEntity
  8
0
  6
SLD-Сплошная
 62
     7
370
    25
100
AcDbLine
 10
311.7382403636
 20
171.3155266041
 30
0.0
 11
313.0331949827
 21
170.3746870014
 31
0.0
  0
ARC
  5
1FA
330
1F
100
AcDbEntity
  8
0
  6
SLD-Сплошная
 62
     7
370
    25
100
AcDbCircle
 10
340.1424288025
 20
149.4426077516
 30
0.0
 40
34.25000000022106
100
AcDbArc
 50
139.8105917566
 51
142.3268927548
  0
ARC
  5
1FB
330
1F
100
AcDbEntity
  8
0
  6
SLD-Сплошная
 62
     7
370
    25
100
AcDbCircle
 10
340.1424288025
 20
149.4426077516
 30
0.0
 40
34.25
100
AcDbArc
 50
111.3835182455
 51
139.8105917566
  0
ARC
  5
1FC
330
1F
100
AcDbEntity
  8
0
  6
SLD-Сплошная
 62
     7
370
    25
100
AcDbCircle
 10
340.1424288025
 20
149.4426077516
 30
0.0
 40
34.25
100
AcDbArc
 50
109.6731072437
 51
111.3835182455
  0
LINE
  5
1FD
330
1F
100
AcDbEntity
  8
0
  6
SLD-Сплошная
 62
     7
370
    25
100
AcDbLine
 10
328.1174237373
 20
183.215699899
 30
0.0
 11
328.6120523881
 21
181.6933894436
 31
0.0
  0
ARC
  5
1FE
330
1F
100
AcDbEntity
  8
0
  6
SLD-Сплошная
 62
     7
370
    25
100
AcDbCircle
 10
340.1424288027
 20
149.4426077519
 30
0.0
 40
35.85000000000003
100
AcDbArc
 50
106.4015840391
 51
109.5984159603
  0
LINE
  5
1FF
330
1F
100
AcDbEntity
  8
0
  6
SLD-Сплошная
 62
     7
370
    25
100
AcDbLine
 10
330.0195367699
 20
183.8337338877
 30
0.0
 11
330.5141654206
 21
182.3114234326
 31
0.0
  0
ARC
  5
200
330
1F
100
AcDbEntity
  8
0
  6
SLD-Сплошная
 62
     7
370
    25
100
AcDbCircle
 10
340.1424288025
 20
149.4426077516
 30
0.0
 40
34.25000000036633
100
AcDbArc
 50
103.8105917568
 51
106.3268927549
  0
ARC
  5
201
330
1F
100
AcDbEntity
  8
0
  6
SLD-Сплошная
 62
     7
370
    25
100
AcDbCircle
 10
340.1424288025
 20
149.4426077516
 30
0.0
 40
34.25000000000003
100
AcDbArc
 50
73.673107244
 51
103.8105917568
  0
LINE
  5
202
330
1F
100
AcDbEntity
  8
0
  6
SLD-Сплошная
 62
     7
370
    25
100
AcDbLine
 10
350.2653208358
 20
183.8337338876
 30
0.0
 11
349.770692185
 21
182.3114234321
 31
0.0
  0
ARC
  5
203
330
1F
100
AcDbEntity
  8
0
  6
SLD-Сплошная
 62
     7
370
    25
100
AcDbCircle
 10
340.1424288027
 20
149.4426077519
 30
0.0
 40
35.85000000000006
100
AcDbArc
 50
70.4015840391
 51
73.5984159603
  0
LINE
  5
204
330
1F
100
AcDbEntity
  8
0
  6
SLD-Сплошная
 62
     7
370
    25
100
AcDbLine
 10
352.1674338684
 20
183.2156998989
 30
0.0
 11
351.6728052177
 21
181.6933894438
 31
0.0
  0
ARC
  5
205
330
1F
100
AcDbEntity
  8
0
  6
SLD-Сплошная
 62
     7
370
    25
100
AcDbCircle
 10
340.1424288025
 20
149.4426077516
 30
0.0
 40
34.25000000044164
100
AcDbArc
 50
67.810591757
 51
70.3268927552
  0
ARC
  5
206
330
1F
100
AcDbEntity
  8
0
  6
SLD-Сплошная
 62
     7
370
    25
100
AcDbCircle
 10
340.1424288025
 20
149.4426077516
 30
0.0
 40
34.25000000000005
100
AcDbArc
 50
37.6731072443
 51
67.810591757
  0
LINE
  5
207
330
1F
100
AcDbEntity
  8
0
  6
SLD-Сплошная
 62
     7
370
    25
100
AcDbLine
 10
368.546617242
 20
171.3155266038
 30
0.0
 11
367.2516626225
 21
170.3746870009
 31
0.0
  0
ARC
  5
208
330
1F
100
AcDbEntity
  8
0
  6
SLD-Сплошная
 62
     7
370
    25
100
AcDbCircle
 10
340.1424288027
 20
149.4426077519
 30
0.0
 40
35.84999999999999
100
AcDbArc
 50
34.4015840391
 51
37.5984159603
  0
LINE
  5
209
330
1F
100
AcDbEntity
  8
0
  6
SLD-Сплошная
 62
     7
370
    25
100
AcDbLine
 10
369.7221877466
 20
169.697492615
 30
0.0
 11
368.4272331271
 21
168.756653012
 31
0.0
  0
ARC
  5
20A
330
1F
100
AcDbEntity
  8
0
  6
SLD-Сплошная
 62
     7
370
    25
100
AcDbCircle
 10
340.1424288025
 20
149.4426077516
 30
0.0
 40
34.25000000000247
100
AcDbArc
 50
2.7815130047
 51
34.3268927553
  0
SPLINE
  5
20B
330
1F
100
AcDbEntity
  8
0
  6
SLD-Сплошная
 62
     7
370
    25
100
AcDbSpline
210
0.0
220
0.0
230
1.0
 70
     8
 71
     3
 72
    10
 73
     6
 74
     0
 42
0.00000001
 43
0.00000001
 40
0.0
 40
0.0
 40
0.0
 40
0.0
 40
0.5
 40
0.5
 40
1.0
 40
1.0
 40
1.0
 40
1.0
 10
372.4574556590545
 20
151.3648080089369
 30
0.0
 10
372.5912757606026
 20
151.3348549101304
 30
0.0
 10
372.7249706711573
 20
151.3041801186019
 30
0.0
 10
372.9949421078412
 20
151.2554260163179
 30
0.0
 10
373.1305680689658
 20
151.2370410094316
 30
0.0
 10
373.2680466754415
 20
151.2359370797923
 30
0.0
  0
SPLINE
  5
20C
330
1F
100
AcDbEntity
  8
0
  6
SLD-Сплошная
 62
     7
370
    25
100
AcDbSpline
210
0.0
220
0.0
230
1.0
 70
     8
 71
     3
 72
     8
 73
     4
 74
     0
 42
0.00000001
 43
0.00000001
 40
0.0
 40
0.0
 40
0.0
 40
0.0
 40
1.0
 40
1.0
 40
1.0
 40
1.0
 10
367.3077204709803
 20
150.9338299619133
 30
0.0
 10
367.2772850783481
 20
150.9341987768599
 30
0.0
 10
367.2468536842584
 20
150.9345719009625
 30
0.0
 10
367.216426680919
 20
150.9349452886911
 30
0.0
  0
SPLINE
  5
20D
330
1F
100
AcDbEntity
  8
0
  6
SLD-Сплошная
 62
     7
370
    25
100
AcDbSpline
210
0.0
220
0.0
230
1.0
 70
     8
 71
     3
 72
    22
 73
    18
 74
     0
 42
0.00000001
 43
0.00000001
 40
0.0
 40
0.0
 40
0.0
 40
0.0
 40
0.0314918881170596
 40
0.0629628488687342
 40
0.0946599366468611
 40
0.1268250070257021
 40
0.1894731521628505
 40
0.2523570760139832
 40
0.3146268264123558
 40
0.3760648978073869
 40
0.4998036323691356
 40
0.6229604120184905
 40
0.7469009332544619
 40
0.8098766961937192
 40
0.8727355860029848
 40
0.9368395544861401
 40
0.9999999999999999
 40
0.9999999999999999
 40
0.9999999999999999
 40
0.9999999999999999
 10
363.542217478709
 20
148.3844120723236
 30
0.0
 10
363.5105947187667
 20
148.3902896070947
 30
0.0
 10
363.447370213216
 20
148.4020407708273
 30
0.0
 10
363.3547775167934
 20
148.4303152216658
 30
0.0
 10
363.2642651769905
 20
148.4663358180198
 30
0.0
 10
363.1488045567361
 20
148.5245040425415
 30
0.0
 10
363.0142600435142
 20
148.6143584507458
 30
0.0
 10
362.8740242719233
 20
148.7463557574431
 30
0.0
 10
362.7575428369267
 20
148.8984154893786
 30
0.0
 10
362.6409249597455
 20
149.1237394793239
 30
0.0
 10
362.5745209480096
 20
149.440767738243
 30
0.0
 10
362.6532842177847
 20
149.8213129789504
 30
0.0
 10
362.8268879209993
 20
150.0938371787273
 30
0.0
 10
363.0121281695817
 20
150.2706522654254
 30
0.0
 10
363.1738197912143
 20
150.3789760904419
 30
0.0
 10
363.3511882184527
 20
150.4615722804346
 30
0.0
 10
363.4788045375249
 20
150.4877591320164
 30
0.0
 10
363.5421396310855
 20
150.5007554847325
 30
0.0
  0
SPLINE
  5
20E
330
1F
100
AcDbEntity
  8
0
  6
SLD-Сплошная
 62
     7
370
    25
100
AcDbSpline
210
0.0
220
0.0
230
1.0
 70
     8
 71
     3
 72
     8
 73
     4
 74
     0
 42
0.00000001
 43
0.00000001
 40
0.0
 40
0.0
 40
0.0
 40
0.0
 40
1.0
 40
1.0
 40
1.0
 40
1.0
 10
366.6188386315629
 20
148.0148585733675
 30
0.0
 10
366.6492900323204
 20
148.0089375654891
 30
0.0
 10
366.6797447552841
 20
148.0030126282885
 30
0.0
 10
366.7102031377349
 20
147.9970874766114
 30
0.0
  0
SPLINE
  5
20F
330
1F
100
AcDbEntity
  8
0
  6
SLD-Сплошная
 62
     7
370
    25
100
AcDbSpline
210
0.0
220
0.0
230
1.0
 70
     8
 71
     3
 72
    10
 73
     6
 74
     0
 42
0.00000001
 43
0.00000001
 40
0.0
 40
0.0
 40
0.0
 40
0.0
 40
0.5
 40
0.5
 40
1.0
 40
1.0
 40
1.0
 40
1.0
 10
373.2708980688716
 20
147.6492986955282
 30
0.0
 10
373.1329723547178
 20
147.6484453209434
 30
0.0
 10
372.996833088387
 20
147.6300830012942
 30
0.0
 10
372.7259342361874
 20
147.5812568705212
 30
0.0
 10
372.5914401221249
 20
147.5503973776898
 30
0.0
 10
372.4574556589565
 20
147.5204074943582
 30
0.0
  0
SPLINE
  5
210
330
1F
100
AcDbEntity
  8
0
  6
SLD-Сплошная
 62
     7
370
    25
100
AcDbSpline
210
0.0
220
0.0
230
1.0
 70
     8
 71
     3
 72
    14
 73
    10
 74
     0
 42
0.00000001
 43
0.00000001
 40
0.0
 40
0.0
 40
0.0
 40
0.0
 40
0.0000381661268658
 40
0.0000381661268658
 40
0.0000381661268658
 40
0.0000763301799645
 40
0.0000763301799645
 40
0.0000763301799645
 40
0.0000874201025539
 40
0.0000874201025539
 40
0.0000874201025539
 40
0.0000874201025539
 10
373.270898068872
 20
147.6492986955247
 30
0.0
 10
373.2835950441088
 20
147.6493719410975
 30
0.0
 10
373.2962917576893
 20
147.6496183296759
 30
0.0
 10
373.3089831711307
 20
147.6500021762849
 30
0.0
 10
373.3216741675246
 20
147.6503860102803
 30
0.0
 10
373.3343613675797
 20
147.6509073528112
 30
0.0
 10
373.3470431468552
 20
147.6515253437615
 30
0.0
 10
373.3507280907467
 20
147.6517049133572
 30
0.0
 10
373.3544126460901
 20
147.6518926104564
 30
0.0
 10
373.358096821073
 20
147.6520873452026
 30
0.0
  0
ARC
  5
211
330
1F
100
AcDbEntity
  8
0
  6
SLD-Сплошная
 62
     7
370
    25
100
AcDbCircle
 10
340.1424288025
 20
149.4426077516
 30
0.0
 40
34.25000000014927
100
AcDbArc
 50
325.6731072445
 51
357.2184869925
  0
LINE
  5
212
330
1F
100
AcDbEntity
  8
0
  6
SLD-Сплошная
 62
     7
370
    25
100
AcDbLine
 10
369.7221877464
 20
129.1877228884
 30
0.0
 11
368.4272331272
 21
130.1285624911
 31
0.0
  0
ARC
  5
213
330
1F
100
AcDbEntity
  8
0
  6
SLD-Сплошная
 62
     7
370
    25
100
AcDbCircle
 10
340.1424288027
 20
149.4426077519
 30
0.0
 40
35.85000000000002
100
AcDbArc
 50
322.4015840391
 51
325.5984159603
  0
LINE
  5
214
330
1F
100
AcDbEntity
  8
0
  6
SLD-Сплошная
 62
     7
370
    25
100
AcDbLine
 10
368.5466172418
 20
127.5696888996
 30
0.0
 11
367.2516626225
 21
128.5105285024
 31
0.0
  0
ARC
  5
215
330
1F
100
AcDbEntity
  8
0
  6
SLD-Сплошная
 62
     7
370
    25
100
AcDbCircle
 10
340.1424288025
 20
149.4426077516
 30
0.0
 40
34.25000000000007
100
AcDbArc
 50
289.6731072444
 51
322.3268927557
  0
LINE
  5
216
330
1F
100
AcDbEntity
  8
0
  6
SLD-Сплошная
 62
     7
370
    25
100
AcDbLine
 10
352.167433868
 20
115.6695156047
 30
0.0
 11
351.6728052174
 21
117.1918260598
 31
0.0
  0
ARC
  5
217
330
1F
100
AcDbEntity
  8
0
  6
SLD-Сплошная
 62
     7
370
    25
100
AcDbCircle
 10
340.1424288027
 20
149.4426077519
 30
0.0
 40
35.85000000000001
100
AcDbArc
 50
286.4015840391
 51
289.5984159603
  0
LINE
  5
218
330
1F
100
AcDbEntity
  8
0
  6
SLD-Сплошная
 62
     7
370
    25
100
AcDbLine
 10
350.2653208354
 20
115.051481616
 30
0.0
 11
349.7706921848
 21
116.5737920711
 31
0.0
  0
ARC
  5
219
330
1F
100
AcDbEntity
  8
0
  6
SLD-Сплошная
 62
     7
370
    25
100
AcDbCircle
 10
340.1424288025
 20
149.4426077516
 30
0.0
 40
34.25000000000004
100
AcDbArc
 50
253.6731072442
 51
286.3268927556
  0
LINE
  5
21A
330
1F
100
AcDbEntity
  8
0
  6
SLD-Сплошная
 62
     7
370
    25
100
AcDbLine
 10
330.0195367696
 20
115.0514816161
 30
0.0
 11
330.5141654202
 21
116.5737920711
 31
0.0
  0
ARC
  5
21B
330
1F
100
AcDbEntity
  8
0
  6
SLD-Сплошная
 62
     7
370
    25
100
AcDbCircle
 10
340.1424288027
 20
149.4426077519
 30
0.0
 40
35.84999999999999
100
AcDbArc
 50
250.4015840391
 51
253.5984159603
  0
LINE
  5
21C
330
1F
100
AcDbEntity
  8
0
  6
SLD-Сплошная
 62
     7
370
    25
100
AcDbLine
 10
328.117423737
 20
115.6695156049
 30
0.0
 11
328.6120523876
 21
117.1918260599
 31
0.0
  0
ARC
  5
21D
330
1F
100
AcDbEntity
  8
0
  6
SLD-Сплошная
 62
     7
370
    25
100
AcDbCircle
 10
340.1424288025
 20
149.4426077516
 30
0.0
 40
34.25000000000005
100
AcDbArc
 50
217.6731072439
 51
250.3268927553
  0
LINE
  5
21E
330
1F
100
AcDbEntity
  8
0
  6
SLD-Сплошная
 62
     7
370
    25
100
AcDbLine
 10
311.7382403633
 20
127.5696888999
 30
0.0
 11
313.0331949825
 21
128.5105285026
 31
0.0
  0
ARC
  5
21F
330
1F
100
AcDbEntity
  8
0
  6
SLD-Сплошная
 62
     7
370
    25
100
AcDbCircle
 10
340.1424288027
 20
149.4426077519
 30
0.0
 40
35.85000000000002
100
AcDbArc
 50
214.4015840391
 51
217.5984159603
  0
LINE
  5
220
330
1F
100
AcDbEntity
  8
0
  6
SLD-Сплошная
 62
     7
370
    25
100
AcDbLine
 10
310.5626698588
 20
129.1877228887
 30
0.0
 11
311.8576244783
 21
130.1285624916
 31
0.0
  0
ARC
  5
221
330
1F
100
AcDbEntity
  8
0
  6
SLD-Сплошная
 62
     7
370
    25
100
AcDbCircle
 10
340.1424288028
 20
149.4426077521
 30
0.0
 40
34.25000000000006
100
AcDbArc
 50
182.7815130047
 51
214.3268927554
  0
SPLINE
  5
222
330
1F
100
AcDbEntity
  8
0
  6
SLD-Сплошная
 62
     7
370
    25
100
AcDbSpline
210
0.0
220
0.0
230
1.0
 70
     8
 71
     3
 72
    10
 73
     6
 74
     0
 42
0.00000001
 43
0.00000001
 40
0.0
 40
0.0
 40
0.0
 40
0.0
 40
0.5
 40
0.5
 40
1.0
 40
1.0
 40
1.0
 40
1.0
 10
307.8274019462743
 20
147.5204074947811
 30
0.0
 10
307.6935818447262
 20
147.5503605935875
 30
0.0
 10
307.5598869341715
 20
147.5810353851159
 30
0.0
 10
307.2899154974876
 20
147.6297894874
 30
0.0
 10
307.1542895363629
 20
147.6481744942864
 30
0.0
 10
307.0168109298872
 20
147.6492784239257
 30
0.0
  0
SPLINE
  5
223
330
1F
100
AcDbEntity
  8
0
  6
SLD-Сплошная
 62
     7
370
    25
100
AcDbSpline
210
0.0
220
0.0
230
1.0
 70
     8
 71
     3
 72
     8
 73
     4
 74
     0
 42
0.00000001
 43
0.00000001
 40
0.0
 40
0.0
 40
0.0
 40
0.0
 40
1.0
 40
1.0
 40
1.0
 40
1.0
 10
312.9771371344004
 20
147.9513855415831
 30
0.0
 10
313.007572525799
 20
147.9510167259017
 30
0.0
 10
313.0380039186535
 20
147.9506436010627
 30
0.0
 10
313.0684309207561
 20
147.9502702125984
 30
0.0
  0
SPLINE
  5
224
330
1F
100
AcDbEntity
  8
0
  6
SLD-Сплошная
 62
     7
370
    25
100
AcDbSpline
210
0.0
220
0.0
230
1.0
 70
     8
 71
     3
 72
    21
 73
    17
 74
     0
 42
0.00000001
 43
0.00000001
 40
0.0
 40
0.0
 40
0.0
 40
0.0
 40
0.0314726357069592
 40
0.0629585233466211
 40
0.094719620403118
 40
0.1270111704420765
 40
0.1896451040777582
 40
0.2526469842380868
 40
0.37648749606057
 40
0.499633886904605
 40
0.6228340602666542
 40
0.7468148372992637
 40
0.8098365499314711
 40
0.8726902894946189
 40
0.9368281729146959
 40
1.0
 40
1.0
 40
1.0
 40
1.0
 10
316.742639207977
 20
150.5007972718552
 30
0.0
 10
316.7742796387058
 20
150.4951850012729
 30
0.0
 10
316.837573822748
 20
150.4839580969939
 30
0.0
 10
316.9303306363402
 20
150.456095229762
 30
0.0
 10
317.0210875816187
 20
150.4202019876593
 30
0.0
 10
317.1366624502789
 20
150.3619587101657
 30
0.0
 10
317.2711780700488
 20
150.2716310311195
 30
0.0
 10
317.4564346948838
 20
150.0955976645771
 30
0.0
 10
317.6305677115432
 20
149.8236662051071
 30
0.0
 10
317.7102879000014
 20
149.4439618952583
 30
0.0
 10
317.6315411409563
 20
149.0638575131503
 30
0.0
 10
317.4578943705037
 20
148.7914147943957
 30
0.0
 10
317.2726788689156
 20
148.6145812820226
 30
0.0
 10
317.1109959814449
 20
148.5062361817319
 30
0.0
 10
316.9336555067092
 20
148.4236463839901
 30
0.0
 10
316.8060403796051
 20
148.3974598253837
 30
0.0
 10
316.7427170030073
 20
148.3844659009951
 30
0.0
  0
SPLINE
  5
225
330
1F
100
AcDbEntity
  8
0
  6
SLD-Сплошная
 62
     7
370
    25
100
AcDbSpline
210
0.0
220
0.0
230
1.0
 70
     8
 71
     3
 72
     8
 73
     4
 74
     0
 42
0.00000001
 43
0.00000001
 40
0.0
 40
0.0
 40
0.0
 40
0.0
 40
1.0
 40
1.0
 40
1.0
 40
1.0
 10
313.6660189971636
 20
150.8703569272507
 30
0.0
 10
313.6369784379373
 20
150.8754560157406
 30
0.0
 10
313.6079358473667
 20
150.8805575068955
 30
0.0
 10
313.5788910637438
 20
150.8856596246035
 30
0.0
  0
SPLINE
  5
226
330
1F
100
AcDbEntity
  8
0
  6
SLD-Сплошная
 62
     7
370
    25
100
AcDbSpline
210
0.0
220
0.0
230
1.0
 70
     8
 71
     3
 72
    36
 73
    32
 74
     0
 42
0.00000001
 43
0.00000001
 40
0.0
 40
0.0
 40
0.0
 40
0.0
 40
0.0374412938517702
 40
0.0743235659203826
 40
0.1106385744581864
 40
0.1464016662577005
 40
0.181642015045871
 40
0.2164014484588912
 40
0.2507299689773012
 40
0.284686036474499
 40
0.3183279139677484
 40
0.351712029871075
 40
0.3848922862076629
 40
0.4179200550856129
 40
0.4508426888613387
 40
0.4837020684564727
 40
0.516540007446747
 40
0.5493972913359413
 40
0.5823157062082001
 40
0.6153371259844118
 40
0.6485088691966436
 40
0.6818822785429478
 40
0.7155111742262469
 40
0.7494519267014333
 40
0.783762709352919
 40
0.8185018650255395
 40
0.8537192629425894
 40
0.8894566033174275
 40
0.9257429412813966
 40
0.9625935045671757
 40
1.0
 40
1.0
 40
1.0
 40
1.0
 10
316.7146786260996
 20
148.5467557994862
 30
0.0
 10
316.7469785605282
 20
148.5526519164961
 30
0.0
 10
316.8110961712934
 20
148.564356117825
 30
0.0
 10
316.9040180587813
 20
148.592889300465
 30
0.0
 10
316.9926640841995
 20
148.628824912291
 30
0.0
 10
317.0761605007306
 20
148.672601121618
 30
0.0
 10
317.1538631373116
 20
148.7235334700881
 30
0.0
 10
317.2252646252492
 20
148.7810086243899
 30
0.0
 10
317.2898849311621
 20
148.8444290500669
 30
0.0
 10
317.3472050544793
 20
148.9132541667869
 30
0.0
 10
317.3969219174376
 20
148.9867574940066
 30
0.0
 10
317.4388135477142
 20
149.0642134986606
 30
0.0
 10
317.4726019140526
 20
149.1449535089703
 30
0.0
 10
317.4980089422269
 20
149.2282857619472
 30
0.0
 10
317.5150283777073
 20
149.3134349923793
 30
0.0
 10
317.5235996948349
 20
149.3996794727248
 30
0.0
 10
317.5235700032984
 20
149.4862941922969
 30
0.0
 10
317.5149413672509
 20
149.5725272835841
 30
0.0
 10
317.4978677430929
 20
149.6576542058859
 30
0.0
 10
317.4724107648613
 20
149.7409535229635
 30
0.0
 10
317.4385789041576
 20
149.8216506998983
 30
0.0
 10
317.3966531128332
 20
149.8990557277464
 30
0.0
 10
317.3469120283917
 20
149.9725009959846
 30
0.0
 10
317.2895785651242
 20
150.0412620322355
 30
0.0
 10
317.2249582169446
 20
150.1046152009778
 30
0.0
 10
317.1535706063857
 20
150.1620220310672
 30
0.0
 10
317.0758961323493
 20
150.2128869863705
 30
0.0
 10
316.9924425747451
 20
150.2565991652175
 30
0.0
 10
316.9038544541918
 20
150.2924780417539
 30
0.0
 10
316.8110043507763
 20
150.32096283566
 30
0.0
 10
316.7469413202045
 20
150.3326464947873
 30
0.0
 10
316.7146699980992
 20
150.3385320597332
 30
0.0
  0
SPLINE
  5
227
330
1F
100
AcDbEntity
  8
0
  6
SLD-Сплошная
 62
     7
370
    25
100
AcDbSpline
210
0.0
220
0.0
230
1.0
 70
     8
 71
     3
 72
    36
 73
    32
 74
     0
 42
0.00000001
 43
0.00000001
 40
0.0
 40
0.0
 40
0.0
 40
0.0
 40
0.037441293851771
 40
0.0743235659203842
 40
0.1106385744581871
 40
0.1464016662577022
 40
0.1816420150458727
 40
0.216401448458893
 40
0.2507299689773032
 40
0.2846860364745026
 40
0.3183279139677518
 40
0.3517120298710769
 40
0.3848922862076635
 40
0.4179200550856147
 40
0.4508426888613405
 40
0.483702068456475
 40
0.5165400074467494
 40
0.5493972913359437
 40
0.5823157062082027
 40
0.6153371259844135
 40
0.6485088691966457
 40
0.6818822785429494
 40
0.715511174226248
 40
0.7494519267014346
 40
0.7837627093529211
 40
0.8185018650255415
 40
0.8537192629425913
 40
0.8894566033174286
 40
0.9257429412813978
 40
0.9625935045671767
 40
1.0
 40
1.0
 40
1.0
 40
1.0
 10
363.5701789792292
 20
150.338459704232
 30
0.0
 10
363.5378790448005
 20
150.3325635872222
 30
0.0
 10
363.4737614340354
 20
150.3208593858933
 30
0.0
 10
363.3808395465473
 20
150.2923262032533
 30
0.0
 10
363.2921935211293
 20
150.2563905914272
 30
0.0
 10
363.2086971045981
 20
150.2126143821002
 30
0.0
 10
363.130994468017
 20
150.1616820336302
 30
0.0
 10
363.0595929800795
 20
150.1042068793283
 30
0.0
 10
362.9949726741667
 20
150.0407864536513
 30
0.0
 10
362.9376525508494
 20
149.9719613369313
 30
0.0
 10
362.8879356878911
 20
149.8984580097117
 30
0.0
 10
362.8460440576145
 20
149.8210020050576
 30
0.0
 10
362.8122556912761
 20
149.7402619947479
 30
0.0
 10
362.7868486631019
 20
149.656929741771
 30
0.0
 10
362.7698292276214
 20
149.5717805113389
 30
0.0
 10
362.7612579104938
 20
149.4855360309934
 30
0.0
 10
362.7612876020303
 20
149.3989213114214
 30
0.0
 10
362.7699162380779
 20
149.3126882201342
 30
0.0
 10
362.7869898622359
 20
149.2275612978324
 30
0.0
 10
362.8124468404675
 20
149.1442619807548
 30
0.0
 10
362.8462787011711
 20
149.06356480382
 30
0.0
 10
362.8882044924956
 20
148.9861597759719
 30
0.0
 10
362.937945576937
 20
148.9127145077337
 30
0.0
 10
362.9952790402046
 20
148.8439534714828
 30
0.0
 10
363.0598993883841
 20
148.7806003027404
 30
0.0
 10
363.131286998943
 20
148.7231934726511
 30
0.0
 10
363.2089614729794
 20
148.6723285173478
 30
0.0
 10
363.2924150305836
 20
148.6286163385008
 30
0.0
 10
363.381003151137
 20
148.5927374619644
 30
0.0
 10
363.4738532545525
 20
148.5642526680583
 30
0.0
 10
363.5379162851243
 20
148.552569008931
 30
0.0
 10
363.5701876072295
 20
148.546683443985
 30
0.0
  0
ARC
  5
228
330
1F
100
AcDbEntity
  8
0
  6
SLD-Сплошная
 62
     7
370
    25
100
AcDbCircle
 10
340.1424288027
 20
149.4426077519
 30
0.0
 40
35.85000000000072
100
AcDbArc
 50
182.3203326298
 51
214.4015840391
  0
ARC
  5
229
330
1F
100
AcDbEntity
  8
0
  6
SLD-Сплошная
 62
     7
370
    25
100
AcDbCircle
 10
340.1424288027
 20
149.4426077519
 30
0.0
 40
35.8500000000008
100
AcDbArc
 50
2.3203326298
 51
34.4015840391
  0
ARC
  5
22A
330
1F
100
AcDbEntity
  8
0
  6
SLD-Сплошная
 62
     7
370
    25
100
AcDbCircle
 10
340.1424288027
 20
149.4426077519
 30
0.0
 40
35.84999999999991
100
AcDbArc
 50
325.5984159603
 51
357.6796673695
  0
ARC
  5
22B
330
1F
100
AcDbEntity
  8
0
  6
SLD-Сплошная
 62
     7
370
    25
100
AcDbCircle
 10
340.1424288027
 20
149.4426077519
 30
0.0
 40
35.84999999999992
100
AcDbArc
 50
145.5984159603
 51
177.6796673695
  0
ARC
  5
22C
330
1F
100
AcDbEntity
  8
0
  6
SLD-Сплошная
 62
     7
370
    25
100
AcDbCircle
 10
340.1424288027
 20
149.4426077519
 30
0.0
 40
35.85000000000114
100
AcDbArc
 50
217.5984159603
 51
250.4015840391
  0
ARC
  5
22D
330
1F
100
AcDbEntity
  8
0
  6
SLD-Сплошная
 62
     7
370
    25
100
AcDbCircle
 10
340.1424288027
 20
149.4426077519
 30
0.0
 40
35.85000000000045
100
AcDbArc
 50
253.5984159603
 51
286.4015840391
  0
ARC
  5
22E
330
1F
100
AcDbEntity
  8
0
  6
SLD-Сплошная
 62
     7
370
    25
100
AcDbCircle
 10
340.1424288027
 20
149.4426077519
 30
0.0
 40
35.84999999999998
100
AcDbArc
 50
289.5984159603
 51
322.4015840391
  0
ARC
  5
22F
330
1F
100
AcDbEntity
  8
0
  6
SLD-Сплошная
 62
     7
370
    25
100
AcDbCircle
 10
340.1424288027
 20
149.4426077519
 30
0.0
 40
35.85000000000207
100
AcDbArc
 50
109.5984159603
 51
142.4015840391
  0
ARC
  5
230
330
1F
100
AcDbEntity
  8
0
  6
SLD-Сплошная
 62
     7
370
    25
100
AcDbCircle
 10
340.1424288027
 20
149.4426077519
 30
0.0
 40
35.85000000000146
100
AcDbArc
 50
37.5984159603
 51
70.4015840391
  0
ARC
  5
231
330
1F
100
AcDbEntity
  8
0
  6
SLD-Сплошная
 62
     7
370
    25
100
AcDbCircle
 10
340.1424288027
 20
149.4426077519
 30
0.0
 40
35.85000000000193
100
AcDbArc
 50
73.5984159603
 51
106.4015840391
  0
LINE
  5
232
330
1F
100
AcDbEntity
  8
0
  6
SLD-Сплошная
 62
     7
370
    25
100
AcDbLine
 10
328.7885091767
 20
187.5916702097
 30
0.0
 11
328.7885091767
 21
183.4471811079
 31
0.0
  0
LINE
  5
233
330
1F
100
AcDbEntity
  8
0
  6
SLD-Сплошная
 62
     7
370
    25
100
AcDbLine
 10
351.3885091767
 20
183.4829981171
 30
0.0
 11
351.3885091767
 21
187.5916702097
 31
0.0
  0
LINE
  5
234
330
1F
100
AcDbEntity
  8
0
  6
SLD-Сплошная
 62
     7
370
    25
100
AcDbLine
 10
147.7218595807
 20
267.0121956966
 30
0.0
 11
146.2856429496
 21
267.0121956966
 31
0.0
  0
LINE
  5
235
330
1F
100
AcDbEntity
  8
0
  6
SLD-Сплошная
 62
     7
370
    25
100
AcDbLine
 10
271.7218595807
 20
263.4121956966
 30
0.0
 11
261.7218595807
 21
263.4121956966
 31
0.0
  0
LINE
  5
236
330
1F
100
AcDbEntity
  8
0
  6
SLD-Сплошная
 62
     7
370
    25
100
AcDbLine
 10
185.1654300805
 20
219.6621956966
 30
0.0
 11
198.5659989873
 21
219.6621956966
 31
0.0
  0
ARC
  5
237
330
1F
100
AcDbEntity
  8
0
  6
SLD-Сплошная
 62
     7
370
    25
100
AcDbCircle
 10
198.5659989873
 20
419.6621956966
 30
0.0
 40
200.000000000004
100
AcDbArc
 50
270.0
 51
270.1375990366
  0
LINE
  5
238
330
1F
100
AcDbEntity
  8
0
  6
SLD-Сплошная
 62
     7
370
    25
100
AcDbLine
 10
240.6896145539
 20
221.407588007
 30
0.0
 11
245.9879216998
 21
221.654403557
 31
0.0
  0
LINE
  5
239
330
1F
100
AcDbEntity
  8
0
  6
SLD-Сплошная
 62
     7
370
    25
100
AcDbLine
 10
245.9879216998
 20
259.8699878362
 30
0.0
 11
240.6896145539
 21
260.1168033862
 31
0.0
  0
LINE
  5
23A
330
1F
100
AcDbEntity
  8
0
  6
SLD-Сплошная
 62
     7
370
    25
100
AcDbLine
 10
261.7218595807
 20
218.1121956966
 30
0.0
 11
271.7218595807
 21
218.1121956966
 31
0.0
  0
LINE
  5
23B
330
1F
100
AcDbEntity
  8
0
  6
SLD-Сплошная
 62
     7
370
    25
100
AcDbLine
 10
271.7218595807
 20
221.3121956966
 30
0.0
 11
284.7218595807
 21
221.3121956966
 31
0.0
  0
LINE
  5
23C
330
1F
100
AcDbEntity
  8
0
  6
SLD-Сплошная
 62
     7
370
    25
100
AcDbLine
 10
284.7218595807
 20
260.2121956966
 30
0.0
 11
271.7218595807
 21
260.2121956966
 31
0.0
  0
LINE
  5
23D
330
1F
100
AcDbEntity
  8
0
  6
SLD-Сплошная
 62
     7
370
    25
100
AcDbLine
 10
142.2856429456
 20
204.9661153226
 30
0.0
 11
146.2856429496
 21
204.9661153226
 31
0.0
  0
LINE
  5
23E
330
1F
100
AcDbEntity
  8
0
  6
SLD-Сплошная
 62
     7
370
    25
100
AcDbLine
 10
146.2856429496
 20
276.6661153226
 30
0.0
 11
142.2856429456
 21
276.6661153226
 31
0.0
  0
ARC
  5
23F
330
1F
100
AcDbEntity
  8
0
  6
SLD-Сплошная
 62
     7
370
    25
100
AcDbCircle
 10
659.3437051154
 20
240.8161153227
 30
0.0
 40
530.05806216579
100
AcDbArc
 50
182.3246458877
 51
182.4283761237
  0
ARC
  5
240
330
1F
100
AcDbEntity
  8
0
  6
SLD-Сплошная
 62
     7
370
    25
100
AcDbCircle
 10
659.3437051154
 20
240.8161153227
 30
0.0
 40
530.0580621657901
100
AcDbArc
 50
177.5716103441
 51
177.6753541123
  0
ARC
  5
241
330
1F
100
AcDbEntity
  8
0
  6
SLD-Сплошная
 62
     7
370
    25
100
AcDbCircle
 10
285.3851929146
 20
240.8161153226
 30
0.0
 40
159.1633333333635
100
AcDbArc
 50
172.1276677747
 51
187.8723322255
  0
LINE
  5
242
330
1F
100
AcDbEntity
  8
0
  6
SLD-Сплошная
 62
     7
370
    25
100
AcDbLine
 10
129.7218595813
 20
262.6161153226
 30
0.0
 11
127.7218595813
 21
262.6161153226
 31
0.0
  0
LINE
  5
243
330
1F
100
AcDbEntity
  8
0
  6
SLD-Сплошная
 62
     7
370
    25
100
AcDbLine
 10
127.7218595814
 20
219.0161153226
 30
0.0
 11
129.7218595813
 21
219.0161153226
 31
0.0
  0
SPLINE
  5
244
330
1F
100
AcDbEntity
  8
0
  6
SLD-Сплошная
 62
     7
370
    25
100
AcDbSpline
210
0.0
220
0.0
230
1.0
 70
     8
 71
     3
 72
    15
 73
    11
 74
     0
 42
0.00000001
 43
0.00000001
 40
0.0
 40
0.0
 40
0.0
 40
0.0
 40
0.1150611275021593
 40
0.2382237798299217
 40
0.3678098125710555
 40
0.5005920166630702
 40
0.6332852643218739
 40
0.7626283325536829
 40
0.8852404345945584
 40
1.0
 40
1.0
 40
1.0
 40
1.0
 10
128.3638787778943
 20
278.616115317666
 30
0.0
 10
128.2909605123497
 20
278.6117925408199
 30
0.0
 10
128.1399897612908
 20
278.6028426177486
 30
0.0
 10
127.9160999447816
 20
278.5300673808116
 30
0.0
 10
127.7035394829692
 20
278.4069648353546
 30
0.0
 10
127.5185218339611
 20
278.2353316856679
 30
0.0
 10
127.3789227033921
 20
278.0253338424368
 30
0.0
 10
127.291387171416
 20
277.7963607298071
 30
0.0
 10
127.2561971273086
 20
277.5643594761063
 30
0.0
 10
127.2707713728519
 20
277.4144096329135
 30
0.0
 10
127.2778174289489
 20
277.3419149707553
 30
0.0
  0
SPLINE
  5
245
330
1F
100
AcDbEntity
  8
0
  6
SLD-Сплошная
 62
     7
370
    25
100
AcDbSpline
210
0.0
220
0.0
230
1.0
 70
     8
 71
     3
 72
    15
 73
    11
 74
     0
 42
0.00000001
 43
0.00000001
 40
0.0
 40
0.0
 40
0.0
 40
0.0
 40
0.1147595654054419
 40
0.2373716674463152
 40
0.3667147356781157
 40
0.4994079833369161
 40
0.6321901874289247
 40
0.7617762201700697
 40
0.884938872497844
 40
1.0
 40
1.0
 40
1.0
 40
1.0
 10
127.2778174289486
 20
204.2903156743737
 30
0.0
 10
127.2707713728516
 20
204.2178210122156
 30
0.0
 10
127.2561971273083
 20
204.0678711690228
 30
0.0
 10
127.2913871714157
 20
203.835869915322
 30
0.0
 10
127.3789227033919
 20
203.6068968026923
 30
0.0
 10
127.5185218339607
 20
203.3968989594611
 30
0.0
 10
127.7035394829689
 20
203.2252658097745
 30
0.0
 10
127.9160999447813
 20
203.1021632643175
 30
0.0
 10
128.1399897612906
 20
203.0293880273804
 30
0.0
 10
128.2909605123495
 20
203.0204381043091
 30
0.0
 10
128.3638787778941
 20
203.016115327463
 30
0.0
  0
LINE
  5
246
330
1F
100
AcDbEntity
  8
0
  6
SLD-Сплошная
 62
     7
370
    25
100
AcDbLine
 10
142.2856429456
 20
278.6161153228
 30
0.0
 11
128.328597815
 21
278.6161153228
 31
0.0
  0
LINE
  5
247
330
1F
100
AcDbEntity
  8
0
  6
SLD-Сплошная
 62
     7
370
    25
100
AcDbLine
 10
128.328597815
 20
203.0161153224
 30
0.0
 11
142.2856429456
 21
203.0161153224
 31
0.0
  0
SPLINE
  5
248
330
1F
100
AcDbEntity
  8
0
  6
SLD-Сплошная
 62
     7
370
    25
100
AcDbSpline
210
0.0
220
0.0
230
1.0
 70
     8
 71
     3
 72
    11
 73
     7
 74
     0
 42
0.00000001
 43
0.00000001
 40
0.0
 40
0.0
 40
0.0
 40
0.0
 40
0.2473676363737453
 40
0.4993642231821181
 40
0.7527981594372051
 40
1.0
 40
1.0
 40
1.0
 40
1.0
 10
129.7614493220057
 20
218.359737901029
 30
0.0
 10
129.7610695739363
 20
218.3445781881497
 30
0.0
 10
129.7603029716336
 20
218.3139750811445
 30
0.0
 10
129.7471603532782
 20
218.2693706897246
 30
0.0
 10
129.7242053426734
 20
218.2288541260405
 30
0.0
 10
129.7022395285578
 20
218.2073950710854
 30
0.0
 10
129.6913933407097
 20
218.1967991086566
 30
0.0
  0
SPLINE
  5
249
330
1F
100
AcDbEntity
  8
0
  6
SLD-Сплошная
 62
     7
370
    25
100
AcDbSpline
210
0.0
220
0.0
230
1.0
 70
     8
 71
     3
 72
    11
 73
     7
 74
     0
 42
0.00000001
 43
0.00000001
 40
0.0
 40
0.0
 40
0.0
 40
0.0
 40
0.2472018405627783
 40
0.5006357768178277
 40
0.7526323636262264
 40
1.0
 40
1.0
 40
1.0
 40
1.0
 10
129.6913933407099
 20
263.4354315364724
 30
0.0
 10
129.702239528558
 20
263.4248355740436
 30
0.0
 10
129.7242053426736
 20
263.4033765190885
 30
0.0
 10
129.7471603532783
 20
263.3628599554044
 30
0.0
 10
129.7603029716338
 20
263.3182555639845
 30
0.0
 10
129.7610695739366
 20
263.2876524569793
 30
0.0
 10
129.761449322006
 20
263.2724927441001
 30
0.0
  0
SPLINE
  5
24A
330
1F
100
AcDbEntity
  8
0
  6
SLD-Сплошная
 62
     7
370
    25
100
AcDbSpline
210
0.0
220
0.0
230
1.0
 70
     8
 71
     3
 72
    11
 73
     7
 74
     0
 42
0.00000001
 43
0.00000001
 40
0.0
 40
0.0
 40
0.0
 40
0.0
 40
0.2956342291613431
 40
0.6283291321400107
 40
0.8791568580408085
 40
1.0
 40
1.0
 40
1.0
 40
1.0
 10
129.7602181995147
 20
218.2456046363272
 30
0.0
 10
129.6974586681559
 20
218.1939908351835
 30
0.0
 10
129.5640720776247
 20
218.0842929325725
 30
0.0
 10
129.4357882093086
 20
217.8787270829592
 30
0.0
 10
129.3321335666033
 20
217.71610163407
 30
0.0
 10
129.2956031512712
 20
217.6212123815998
 30
0.0
 10
129.283725841136
 20
217.5903605812618
 30
0.0
  0
SPLINE
  5
24B
330
1F
100
AcDbEntity
  8
0
  6
SLD-Сплошная
 62
     7
370
    25
100
AcDbSpline
210
0.0
220
0.0
230
1.0
 70
     8
 71
     3
 72
    11
 73
     7
 74
     0
 42
0.00000001
 43
0.00000001
 40
0.0
 40
0.0
 40
0.0
 40
0.0
 40
0.1208431419592557
 40
0.3716708678599824
 40
0.7043657708386568
 40
1.0
 40
1.0
 40
1.0
 40
1.0
 10
129.2837258411362
 20
264.0418700638672
 30
0.0
 10
129.2956031512714
 20
264.0110182635293
 30
0.0
 10
129.3321335666035
 20
263.9161290110591
 30
0.0
 10
129.4357882093088
 20
263.7535035621698
 30
0.0
 10
129.5640720776248
 20
263.5479377125565
 30
0.0
 10
129.6974586681561
 20
263.4382398099455
 30
0.0
 10
129.7602181995149
 20
263.3866260088018
 30
0.0
  0
LINE
  5
24C
330
1F
100
AcDbEntity
  8
0
  6
SLD-Сплошная
 62
     7
370
    25
100
AcDbLine
 10
147.7218595807
 20
242.5621957018
 30
0.0
 11
146.2856429496
 21
242.5621956966
 31
0.0
  0
LINE
  5
24D
330
1F
100
AcDbEntity
  8
0
  6
SLD-Сплошная
 62
     7
370
    25
100
AcDbLine
 10
147.7218595807
 20
233.7621955088
 30
0.0
 11
146.2856429496
 21
233.7621955088
 31
0.0
  0
LINE
  5
24E
330
1F
100
AcDbEntity
  8
0
  6
SLD-Сплошная
 62
     7
370
    25
100
AcDbLine
 10
147.7218595807
 20
233.7621955088
 30
0.0
 11
147.7218595807
 21
242.5621957018
 31
0.0
  0
LINE
  5
24F
330
1F
100
AcDbEntity
  8
0
  6
SLD-Сплошная
 62
     7
370
    25
100
AcDbLine
 10
147.7218595807
 20
246.9760812485
 30
0.0
 11
181.2218595807
 21
246.9760812485
 31
0.0
  0
LINE
  5
250
330
1F
100
AcDbEntity
  8
0
  6
SLD-Сплошная
 62
     7
370
    25
100
AcDbLine
 10
181.2218595807
 20
234.5483101446
 30
0.0
 11
147.7218595807
 21
234.5483101446
 31
0.0
  0
LINE
  5
251
330
1F
100
AcDbEntity
  8
0
  6
SLD-Сплошная
 62
     7
370
    25
100
AcDbLine
 10
146.2856429496
 20
246.1460789954
 30
0.0
 11
147.7218595807
 21
246.1460789954
 31
0.0
  0
LINE
  5
252
330
1F
100
AcDbEntity
  8
0
  6
SLD-Сплошная
 62
     7
370
    25
100
AcDbLine
 10
181.2218595807
 20
234.5483101446
 30
0.0
 11
181.2218595807
 21
246.9760812485
 31
0.0
  0
LINE
  5
253
330
1F
100
AcDbEntity
  8
0
  6
SLD-Сплошная
 62
     7
370
    25
100
AcDbLine
 10
147.7218595807
 20
267.0121956966
 30
0.0
 11
147.7218595807
 21
246.1460789954
 31
0.0
  0
LINE
  5
254
330
1F
100
AcDbEntity
  8
0
  6
SLD-Сплошная
 62
     7
370
    25
100
AcDbLine
 10
146.2856429496
 20
214.5121956966
 30
0.0
 11
147.7218595807
 21
214.5121956966
 31
0.0
  0
LINE
  5
255
330
1F
100
AcDbEntity
  8
0
  6
SLD-Сплошная
 62
     7
370
    25
100
AcDbLine
 10
147.7218595807
 20
233.7621955088
 30
0.0
 11
147.7218595807
 21
214.5121956966
 31
0.0
  0
LINE
  5
256
330
1F
100
AcDbEntity
  8
0
  6
SLD-Сплошная
 62
     7
370
    25
100
AcDbLine
 10
147.7218595807
 20
265.5121956966
 30
0.0
 11
181.2218595807
 21
265.5121956966
 31
0.0
  0
LINE
  5
257
330
1F
100
AcDbEntity
  8
0
  6
SLD-Сплошная
 62
     7
370
    25
100
AcDbLine
 10
181.2218595807
 20
265.5121956966
 30
0.0
 11
181.2218595807
 21
246.9760812485
 31
0.0
  0
LINE
  5
258
330
1F
100
AcDbEntity
  8
0
  6
SLD-Сплошная
 62
     7
370
    25
100
AcDbLine
 10
147.7218595807
 20
216.0121956966
 30
0.0
 11
181.2218595807
 21
216.0121956966
 31
0.0
  0
LINE
  5
259
330
1F
100
AcDbEntity
  8
0
  6
SLD-Сплошная
 62
     7
370
    25
100
AcDbLine
 10
181.2218595807
 20
234.5483101446
 30
0.0
 11
181.2218595807
 21
216.0121956966
 31
0.0
  0
LINE
  5
25A
330
1F
100
AcDbEntity
  8
0
  6
SLD-Сплошная
 62
     7
370
    25
100
AcDbLine
 10
271.7218595807
 20
263.3840789062
 30
0.0
 11
271.7218595807
 21
263.4121956966
 31
0.0
  0
LINE
  5
25B
330
1F
100
AcDbEntity
  8
0
  6
SLD-Сплошная
 62
     7
370
    25
100
AcDbLine
 10
271.7218595807
 20
263.3840789062
 30
0.0
 11
264.7218595807
 21
263.3840789062
 31
0.0
  0
LINE
  5
25C
330
1F
100
AcDbEntity
  8
0
  6
SLD-Сплошная
 62
     7
370
    25
100
AcDbLine
 10
264.7218595807
 20
263.3840789062
 30
0.0
 11
264.7218595807
 21
253.4002202843
 31
0.0
  0
LINE
  5
25D
330
1F
100
AcDbEntity
  8
0
  6
SLD-Сплошная
 62
     7
370
    25
100
AcDbLine
 10
271.7218595807
 20
253.4002202843
 30
0.0
 11
264.7218595807
 21
253.4002202843
 31
0.0
  0
LINE
  5
25E
330
1F
100
AcDbEntity
  8
0
  6
SLD-Сплошная
 62
     7
370
    25
100
AcDbLine
 10
271.7218595807
 20
253.4002202843
 30
0.0
 11
271.7218595807
 21
251.0960625668
 31
0.0
  0
LINE
  5
25F
330
1F
100
AcDbEntity
  8
0
  6
SLD-Сплошная
 62
     7
370
    25
100
AcDbLine
 10
271.7218595807
 20
251.0960625668
 30
0.0
 11
264.7218595807
 21
251.0960625668
 31
0.0
  0
LINE
  5
260
330
1F
100
AcDbEntity
  8
0
  6
SLD-Сплошная
 62
     7
370
    25
100
AcDbLine
 10
264.7218595807
 20
251.0960625668
 30
0.0
 11
264.7218595807
 21
230.8030899822
 31
0.0
  0
LINE
  5
261
330
1F
100
AcDbEntity
  8
0
  6
SLD-Сплошная
 62
     7
370
    25
100
AcDbLine
 10
271.7218595807
 20
230.8030899822
 30
0.0
 11
264.7218595807
 21
230.8030899822
 31
0.0
  0
LINE
  5
262
330
1F
100
AcDbEntity
  8
0
  6
SLD-Сплошная
 62
     7
370
    25
100
AcDbLine
 10
271.7218595807
 20
230.8030899822
 30
0.0
 11
271.7218595807
 21
228.4741793572
 31
0.0
  0
LINE
  5
263
330
1F
100
AcDbEntity
  8
0
  6
SLD-Сплошная
 62
     7
370
    25
100
AcDbLine
 10
271.7218595807
 20
228.4741793572
 30
0.0
 11
264.7218595807
 21
228.4741793572
 31
0.0
  0
LINE
  5
264
330
1F
100
AcDbEntity
  8
0
  6
SLD-Сплошная
 62
     7
370
    25
100
AcDbLine
 10
264.7218595807
 20
228.4741793572
 30
0.0
 11
264.7218595807
 21
221.2523544267
 31
0.0
  0
LINE
  5
265
330
1F
100
AcDbEntity
  8
0
  6
SLD-Сплошная
 62
     7
370
    25
100
AcDbLine
 10
261.7218595807
 20
263.4121956966
 30
0.0
 11
261.7218595807
 21
221.2523544267
 31
0.0
  0
LINE
  5
266
330
1F
100
AcDbEntity
  8
0
  6
SLD-Сплошная
 62
     7
370
    25
100
AcDbLine
 10
251.5218595807
 20
259.8121956966
 30
0.0
 11
251.5218595807
 21
221.7121956966
 31
0.0
  0
ARC
  5
267
330
1F
100
AcDbEntity
  8
0
  6
SLD-Сплошная
 62
     7
370
    25
100
AcDbCircle
 10
253.7718595807
 20
259.8121956966
 30
0.0
 40
2.250000000000028
100
AcDbArc
 50
90.0
 51
180.0
  0
ARC
  5
268
330
1F
100
AcDbEntity
  8
0
  6
SLD-Сплошная
 62
     7
370
    25
100
AcDbCircle
 10
253.7718595807
 20
221.7121956966
 30
0.0
 40
2.250000000000028
100
AcDbArc
 50
180.0
 51
270.0
  0
ARC
  5
269
330
1F
100
AcDbEntity
  8
0
  6
SLD-Сплошная
 62
     7
370
    25
100
AcDbCircle
 10
253.7718595807
 20
260.3121956966
 30
0.0
 40
1.750000000000013
100
AcDbArc
 50
49.6464066901
 51
90.0
  0
ARC
  5
26A
330
1F
100
AcDbEntity
  8
0
  6
SLD-Сплошная
 62
     7
370
    25
100
AcDbCircle
 10
253.7718595807
 20
221.2121956966
 30
0.0
 40
1.749999999999991
100
AcDbArc
 50
270.0
 51
310.3535933099
  0
LINE
  5
26B
330
1F
100
AcDbEntity
  8
0
  6
SLD-Сплошная
 62
     7
370
    25
100
AcDbLine
 10
181.2218595807
 20
261.8621956966
 30
0.0
 11
198.5659989873
 21
261.8621956966
 31
0.0
  0
LINE
  5
26C
330
1F
100
AcDbEntity
  8
0
  6
SLD-Сплошная
 62
     7
370
    25
100
AcDbLine
 10
181.2218595807
 20
219.6621956966
 30
0.0
 11
185.1654300805
 21
219.6621956966
 31
0.0
  0
ARC
  5
26D
330
1F
100
AcDbEntity
  8
0
  6
SLD-Сплошная
 62
     7
370
    25
100
AcDbCircle
 10
198.5659989873
 20
419.6621960392
 30
0.0
 40
200.0000003425625
100
AcDbArc
 50
270.1375990364
 51
272.6671298894
  0
ARC
  5
26E
330
1F
100
AcDbEntity
  8
0
  6
SLD-Сплошная
 62
     7
370
    25
100
AcDbCircle
 10
198.5659989873
 20
61.8621953538
 30
0.0
 40
200.0000003428168
100
AcDbArc
 50
87.3328701106
 51
90.0
  0
LINE
  5
26F
330
1F
100
AcDbEntity
  8
0
  6
SLD-Сплошная
 62
     7
370
    25
100
AcDbLine
 10
257.1218595807
 20
259.7621956966
 30
0.0
 11
254.9049896224
 21
261.6458059503
 31
0.0
  0
LINE
  5
270
330
1F
100
AcDbEntity
  8
0
  6
SLD-Сплошная
 62
     7
370
    25
100
AcDbLine
 10
257.1218595807
 20
259.7621956966
 30
0.0
 11
257.1218595807
 21
221.7621956966
 31
0.0
  0
LINE
  5
271
330
1F
100
AcDbEntity
  8
0
  6
SLD-Сплошная
 62
     7
370
    25
100
AcDbLine
 10
257.1218595807
 20
221.7621956966
 30
0.0
 11
254.9049896224
 21
219.8785854429
 31
0.0
  0
LINE
  5
272
330
1F
100
AcDbEntity
  8
0
  6
SLD-Сплошная
 62
     7
370
    25
100
AcDbLine
 10
240.6896145539
 20
260.1168033862
 30
0.0
 11
207.872676644
 21
261.645542728
 31
0.0
  0
LINE
  5
273
330
1F
100
AcDbEntity
  8
0
  6
SLD-Сплошная
 62
     7
370
    25
100
AcDbLine
 10
240.6896145539
 20
221.407588007
 30
0.0
 11
207.872676644
 21
219.8788486651
 31
0.0
  0
LINE
  5
274
330
1F
100
AcDbEntity
  8
0
  6
SLD-Сплошная
 62
     7
370
    25
100
AcDbLine
 10
251.5218595807
 20
221.9121956966
 30
0.0
 11
245.9879216998
 21
221.654403557
 31
0.0
  0
LINE
  5
275
330
1F
100
AcDbEntity
  8
0
  6
SLD-Сплошная
 62
     7
370
    25
100
AcDbLine
 10
251.5218595807
 20
259.6121956966
 30
0.0
 11
245.9879216998
 21
259.8699878362
 31
0.0
  0
LINE
  5
276
330
1F
100
AcDbEntity
  8
0
  6
SLD-Сплошная
 62
     7
370
    25
100
AcDbLine
 10
271.7218595807
 20
251.0960625668
 30
0.0
 11
271.7218595807
 21
241.9495334612
 31
0.0
  0
LINE
  5
277
330
1F
100
AcDbEntity
  8
0
  6
SLD-Сплошная
 62
     7
370
    25
100
AcDbLine
 10
284.7218595807
 20
241.9495334612
 30
0.0
 11
271.7218595807
 21
241.9495334612
 31
0.0
  0
LINE
  5
278
330
1F
100
AcDbEntity
  8
0
  6
SLD-Сплошная
 62
     7
370
    25
100
AcDbLine
 10
284.7218595807
 20
241.9495334612
 30
0.0
 11
284.7218595807
 21
239.9496190878
 31
0.0
  0
LINE
  5
279
330
1F
100
AcDbEntity
  8
0
  6
SLD-Сплошная
 62
     7
370
    25
100
AcDbLine
 10
284.7218595807
 20
239.9496190878
 30
0.0
 11
271.7218595807
 21
239.9496190878
 31
0.0
  0
LINE
  5
27A
330
1F
100
AcDbEntity
  8
0
  6
SLD-Сплошная
 62
     7
370
    25
100
AcDbLine
 10
271.7218595807
 20
239.9496190878
 30
0.0
 11
271.7218595807
 21
230.8030899822
 31
0.0
  0
LINE
  5
27B
330
1F
100
AcDbEntity
  8
0
  6
SLD-Сплошная
 62
     7
370
    25
100
AcDbLine
 10
271.7218595807
 20
239.9419783652
 30
0.0
 11
284.7218595807
 21
239.9419783652
 31
0.0
  0
LINE
  5
27C
330
1F
100
AcDbEntity
  8
0
  6
SLD-Сплошная
 62
     7
370
    25
100
AcDbLine
 10
284.7218595807
 20
239.9496190878
 30
0.0
 11
284.7218595807
 21
239.9419783652
 31
0.0
  0
LINE
  5
27D
330
1F
100
AcDbEntity
  8
0
  6
SLD-Сплошная
 62
     7
370
    25
100
AcDbLine
 10
284.7218595807
 20
224.5388615574
 30
0.0
 11
271.7218595807
 21
224.5388615574
 31
0.0
  0
LINE
  5
27E
330
1F
100
AcDbEntity
  8
0
  6
SLD-Сплошная
 62
     7
370
    25
100
AcDbLine
 10
284.7218595807
 20
224.5388615574
 30
0.0
 11
284.7218595807
 21
239.9419783652
 31
0.0
  0
LINE
  5
27F
330
1F
100
AcDbEntity
  8
0
  6
SLD-Сплошная
 62
     7
370
    25
100
AcDbLine
 10
271.7218595807
 20
257.181296984
 30
0.0
 11
284.7218595807
 21
257.181296984
 31
0.0
  0
LINE
  5
280
330
1F
100
AcDbEntity
  8
0
  6
SLD-Сплошная
 62
     7
370
    25
100
AcDbLine
 10
284.7218595807
 20
241.9418927387
 30
0.0
 11
284.7218595807
 21
257.181296984
 31
0.0
  0
LINE
  5
281
330
1F
100
AcDbEntity
  8
0
  6
SLD-Сплошная
 62
     7
370
    25
100
AcDbLine
 10
284.7218595807
 20
223.8276146156
 30
0.0
 11
271.7218595807
 21
223.8276146156
 31
0.0
  0
LINE
  5
282
330
1F
100
AcDbEntity
  8
0
  6
SLD-Сплошная
 62
     7
370
    25
100
AcDbLine
 10
284.7218595807
 20
222.811630136
 30
0.0
 11
271.7218595807
 21
222.811630136
 31
0.0
  0
LINE
  5
283
330
1F
100
AcDbEntity
  8
0
  6
SLD-Сплошная
 62
     7
370
    25
100
AcDbLine
 10
271.7218595807
 20
222.811630136
 30
0.0
 11
271.7218595807
 21
218.1650653945
 31
0.0
  0
LINE
  5
284
330
1F
100
AcDbEntity
  8
0
  6
SLD-Сплошная
 62
     7
370
    25
100
AcDbLine
 10
271.7218595807
 20
218.1650653945
 30
0.0
 11
264.7218595807
 21
218.1650653945
 31
0.0
  0
LINE
  5
285
330
1F
100
AcDbEntity
  8
0
  6
SLD-Сплошная
 62
     7
370
    25
100
AcDbLine
 10
284.7218595807
 20
223.8276146156
 30
0.0
 11
284.7218595807
 21
222.811630136
 31
0.0
  0
LINE
  5
286
330
1F
100
AcDbEntity
  8
0
  6
SLD-Сплошная
 62
     7
370
    25
100
AcDbLine
 10
271.7218595807
 20
223.8276146156
 30
0.0
 11
271.7218595807
 21
228.4741793572
 31
0.0
  0
LINE
  5
287
330
1F
100
AcDbEntity
  8
0
  6
SLD-Сплошная
 62
     7
370
    25
100
AcDbLine
 10
271.7218595807
 20
258.8841145422
 30
0.0
 11
271.7218595807
 21
263.3840789062
 31
0.0
  0
LINE
  5
288
330
1F
100
AcDbEntity
  8
0
  6
SLD-Сплошная
 62
     7
370
    25
100
AcDbLine
 10
271.7218595807
 20
258.8841145422
 30
0.0
 11
284.7218595807
 21
258.8841145422
 31
0.0
  0
LINE
  5
289
330
1F
100
AcDbEntity
  8
0
  6
SLD-Сплошная
 62
     7
370
    25
100
AcDbLine
 10
271.7218595807
 20
257.9001846483
 30
0.0
 11
284.7218595807
 21
257.9001846483
 31
0.0
  0
LINE
  5
28A
330
1F
100
AcDbEntity
  8
0
  6
SLD-Сплошная
 62
     7
370
    25
100
AcDbLine
 10
271.7218595807
 20
257.9001846483
 30
0.0
 11
271.7218595807
 21
253.4002202843
 31
0.0
  0
LINE
  5
28B
330
1F
100
AcDbEntity
  8
0
  6
SLD-Сплошная
 62
     7
370
    25
100
AcDbLine
 10
284.7218595807
 20
258.8841145422
 30
0.0
 11
284.7218595807
 21
257.9001846483
 31
0.0
  0
LINE
  5
28C
330
1F
100
AcDbEntity
  8
0
  6
SLD-Сплошная
 62
     7
370
    25
100
AcDbLine
 10
257.1218595807
 20
223.5121956966
 30
0.0
 11
261.7218595807
 21
223.5121956966
 31
0.0
  0
LINE
  5
28D
330
1F
100
AcDbEntity
  8
0
  6
SLD-Сплошная
 62
     7
370
    25
100
AcDbLine
 10
257.1218595807
 20
258.0121956966
 30
0.0
 11
261.7218595807
 21
258.0121956966
 31
0.0
  0
LINE
  5
28E
330
1F
100
AcDbEntity
  8
0
  6
SLD-Сплошная
 62
     7
370
    25
100
AcDbLine
 10
271.7218595807
 20
218.1121956966
 30
0.0
 11
271.7218595807
 21
218.1650653945
 31
0.0
  0
LINE
  5
28F
330
1F
100
AcDbEntity
  8
0
  6
SLD-Сплошная
 62
     7
370
    25
100
AcDbLine
 10
264.7218595807
 20
221.2523544267
 30
0.0
 11
264.7218595807
 21
218.1650653945
 31
0.0
  0
LINE
  5
290
330
1F
100
AcDbEntity
  8
0
  6
SLD-Сплошная
 62
     7
370
    25
100
AcDbLine
 10
261.7218595807
 20
221.2523544267
 30
0.0
 11
261.7218595807
 21
218.1121956966
 31
0.0
  0
LINE
  5
291
330
1F
100
AcDbEntity
  8
0
  6
SLD-Сплошная
 62
     7
370
    25
100
AcDbLine
 10
284.7218595807
 20
223.8276146156
 30
0.0
 11
284.7218595807
 21
224.5388615574
 31
0.0
  0
LINE
  5
292
330
1F
100
AcDbEntity
  8
0
  6
SLD-Сплошная
 62
     7
370
    25
100
AcDbLine
 10
284.7218595807
 20
257.9001846483
 30
0.0
 11
284.7218595807
 21
257.181296984
 31
0.0
  0
LINE
  5
293
330
1F
100
AcDbEntity
  8
0
  6
SLD-Сплошная
 62
     7
370
    25
100
AcDbLine
 10
284.7218595807
 20
221.3121956966
 30
0.0
 11
284.7218595807
 21
222.811630136
 31
0.0
  0
LINE
  5
294
330
1F
100
AcDbEntity
  8
0
  6
SLD-Сплошная
 62
     7
370
    25
100
AcDbLine
 10
284.7218595807
 20
258.8841145422
 30
0.0
 11
284.7218595807
 21
260.2121956966
 31
0.0
  0
LINE
  5
295
330
1F
100
AcDbEntity
  8
0
  6
SLD-Сплошная
 62
     7
370
    25
100
AcDbLine
 10
130.4993737976
 20
211.2363563787
 30
0.0
 11
130.4993737976
 21
212.4119268832
 31
0.0
  0
LINE
  5
296
330
1F
100
AcDbEntity
  8
0
  6
SLD-Сплошная
 62
     7
370
    25
100
AcDbLine
 10
140.7856429496
 20
212.4119268832
 30
0.0
 11
130.4993737976
 21
212.4119268832
 31
0.0
  0
LINE
  5
297
330
1F
100
AcDbEntity
  8
0
  6
SLD-Сплошная
 62
     7
370
    25
100
AcDbLine
 10
140.7856429496
 20
228.7911102569
 30
0.0
 11
140.7856429496
 21
212.4119268832
 31
0.0
  0
LINE
  5
298
330
1F
100
AcDbEntity
  8
0
  6
SLD-Сплошная
 62
     7
370
    25
100
AcDbLine
 10
140.7856429496
 20
228.7911102569
 30
0.0
 11
130.4993737976
 21
228.7911102569
 31
0.0
  0
LINE
  5
299
330
1F
100
AcDbEntity
  8
0
  6
SLD-Сплошная
 62
     7
370
    25
100
AcDbLine
 10
130.4993737976
 20
228.7911102569
 30
0.0
 11
130.4993737976
 21
230.6932232895
 31
0.0
  0
LINE
  5
29A
330
1F
100
AcDbEntity
  8
0
  6
SLD-Сплошная
 62
     7
370
    25
100
AcDbLine
 10
140.7856429496
 20
230.6932232895
 30
0.0
 11
130.4993737976
 21
230.6932232895
 31
0.0
  0
LINE
  5
29B
330
1F
100
AcDbEntity
  8
0
  6
SLD-Сплошная
 62
     7
370
    25
100
AcDbLine
 10
140.7856429496
 20
250.9390073553
 30
0.0
 11
140.7856429496
 21
230.6932232895
 31
0.0
  0
LINE
  5
29C
330
1F
100
AcDbEntity
  8
0
  6
SLD-Сплошная
 62
     7
370
    25
100
AcDbLine
 10
140.7856429496
 20
250.9390073553
 30
0.0
 11
130.4993737976
 21
250.9390073553
 31
0.0
  0
LINE
  5
29D
330
1F
100
AcDbEntity
  8
0
  6
SLD-Сплошная
 62
     7
370
    25
100
AcDbLine
 10
130.4993737976
 20
250.9390073553
 30
0.0
 11
130.4993737976
 21
252.8411203879
 31
0.0
  0
LINE
  5
29E
330
1F
100
AcDbEntity
  8
0
  6
SLD-Сплошная
 62
     7
370
    25
100
AcDbLine
 10
140.7856429496
 20
252.8411203879
 30
0.0
 11
130.4993737976
 21
252.8411203879
 31
0.0
  0
LINE
  5
29F
330
1F
100
AcDbEntity
  8
0
  6
SLD-Сплошная
 62
     7
370
    25
100
AcDbLine
 10
140.7856429496
 20
269.2203037617
 30
0.0
 11
140.7856429496
 21
252.8411203879
 31
0.0
  0
LINE
  5
2A0
330
1F
100
AcDbEntity
  8
0
  6
SLD-Сплошная
 62
     7
370
    25
100
AcDbLine
 10
140.7856429496
 20
269.2203037617
 30
0.0
 11
130.4993737976
 21
269.2203037617
 31
0.0
  0
LINE
  5
2A1
330
1F
100
AcDbEntity
  8
0
  6
SLD-Сплошная
 62
     7
370
    25
100
AcDbLine
 10
130.4993737976
 20
269.2203037617
 30
0.0
 11
130.4993737976
 21
270.3958742663
 31
0.0
  0
LINE
  5
2A2
330
1F
100
AcDbEntity
  8
0
  6
SLD-Сплошная
 62
     7
370
    25
100
AcDbLine
 10
140.7856429496
 20
270.3958742663
 30
0.0
 11
130.4993737976
 21
270.3958742663
 31
0.0
  0
LINE
  5
2A3
330
1F
100
AcDbEntity
  8
0
  6
SLD-Сплошная
 62
     7
370
    25
100
AcDbLine
 10
140.7856429496
 20
276.6367215697
 30
0.0
 11
140.7856429496
 21
270.3958742663
 31
0.0
  0
LINE
  5
2A4
330
1F
100
AcDbEntity
  8
0
  6
SLD-Сплошная
 62
     7
370
    25
100
AcDbLine
 10
142.2856429456
 20
276.6367215697
 30
0.0
 11
140.7856429496
 21
276.6367215697
 31
0.0
  0
LINE
  5
2A5
330
1F
100
AcDbEntity
  8
0
  6
SLD-Сплошная
 62
     7
370
    25
100
AcDbLine
 10
140.7856429496
 20
204.9955090754
 30
0.0
 11
142.2856429456
 21
204.9955090754
 31
0.0
  0
LINE
  5
2A6
330
1F
100
AcDbEntity
  8
0
  6
SLD-Сплошная
 62
     7
370
    25
100
AcDbLine
 10
140.7856429496
 20
211.2363563787
 30
0.0
 11
140.7856429496
 21
204.9955090754
 31
0.0
  0
LINE
  5
2A7
330
1F
100
AcDbEntity
  8
0
  6
SLD-Сплошная
 62
     7
370
    25
100
AcDbLine
 10
140.7856429496
 20
211.2363563787
 30
0.0
 11
130.4993737976
 21
211.2363563787
 31
0.0
  0
LINE
  5
2A8
330
1F
100
AcDbEntity
  8
0
  6
SLD-Сплошная
 62
     7
370
    25
100
AcDbLine
 10
146.2856429496
 20
276.6661153226
 30
0.0
 11
146.2856429496
 21
204.9661153226
 31
0.0
  0
LINE
  5
2A9
330
1F
100
AcDbEntity
  8
0
  6
SLD-Сплошная
 62
     7
370
    25
100
AcDbLine
 10
140.2856429471
 20
250.4443787046
 30
0.0
 11
140.7856429496
 21
250.9390073553
 31
0.0
  0
LINE
  5
2AA
330
1F
100
AcDbEntity
  8
0
  6
SLD-Сплошная
 62
     7
370
    25
100
AcDbLine
 10
140.7856429496
 20
230.6932232895
 30
0.0
 11
140.2856429471
 21
231.1878519402
 31
0.0
  0
LINE
  5
2AB
330
1F
100
AcDbEntity
  8
0
  6
SLD-Сплошная
 62
     7
370
    25
100
AcDbLine
 10
140.2856429471
 20
231.1878519402
 30
0.0
 11
140.2856429471
 21
250.4443787046
 31
0.0
  0
LINE
  5
2AC
330
1F
100
AcDbEntity
  8
0
  6
SLD-Сплошная
 62
     7
370
    25
100
AcDbLine
 10
140.2856429471
 20
250.4443787046
 30
0.0
 11
130.3933418799
 21
250.4443787047
 31
0.0
  0
ARC
  5
2AD
330
1F
100
AcDbEntity
  8
0
  6
SLD-Сплошная
 62
     7
370
    25
100
AcDbCircle
 10
183.0414082214
 20
239.4170649936
 30
0.0
 40
53.79052460404127
100
AcDbArc
 50
167.6313896178
 51
168.1702221701
  0
SPLINE
  5
2AE
330
1F
100
AcDbEntity
  8
0
  6
SLD-Сплошная
 62
     7
370
    25
100
AcDbSpline
210
0.0
220
0.0
230
1.0
 70
     8
 71
     3
 72
    12
 73
     8
 74
     0
 42
0.00000001
 43
0.00000001
 40
0.0
 40
0.0
 40
0.0
 40
0.0
 40
0.2530407182890639
 40
0.5038595539278146
 40
0.7509287906579276
 40
0.9990068579060543
 40
1.0
 40
1.0
 40
1.0
 40
1.0
 10
129.8034522717754
 20
264.2159039365278
 30
0.0
 10
129.7978748101395
 20
264.0905951988126
 30
0.0
 10
129.7867688610617
 20
263.8410780257848
 30
0.0
 10
129.7731297725092
 20
263.5341095462893
 30
0.0
 10
129.7644687358833
 20
263.3386542913289
 30
0.0
 10
129.7605497679068
 20
263.2499917531881
 30
0.0
 10
129.7616471861031
 20
263.2748064203546
 30
0.0
 10
129.7616515619288
 20
263.2749053659155
 30
0.0
  0
SPLINE
  5
2AF
330
1F
100
AcDbEntity
  8
0
  6
SLD-Сплошная
 62
     7
370
    25
100
AcDbSpline
210
0.0
220
0.0
230
1.0
 70
     8
 71
     3
 72
     8
 73
     4
 74
     0
 42
0.00000001
 43
0.00000001
 40
0.0
 40
0.0
 40
0.0
 40
0.0
 40
1.0
 40
1.0
 40
1.0
 40
1.0
 10
129.949229774186
 20
267.292525151463
 30
0.0
 10
129.9508485090043
 20
267.3229765522206
 30
0.0
 10
129.9523903737231
 20
267.3534312751842
 30
0.0
 10
129.9538552835785
 20
267.3838896576351
 30
0.0
  0
SPLINE
  5
2B0
330
1F
100
AcDbEntity
  8
0
  6
SLD-Сплошная
 62
     7
370
    25
100
AcDbSpline
210
0.0
220
0.0
230
1.0
 70
     8
 71
     3
 72
     8
 73
     4
 74
     0
 42
0.00000001
 43
0.00000001
 40
0.0
 40
0.0
 40
0.0
 40
0.0
 40
1.0
 40
1.0
 40
1.0
 40
1.0
 10
129.9842963638652
 20
267.9806996613485
 30
0.0
 10
129.9740664854234
 20
267.7823652375532
 30
0.0
 10
129.9639496497082
 20
267.5840344760748
 30
0.0
 10
129.9539458187071
 20
267.3857075450593
 30
0.0
  0
LWPOLYLINE
  5
2B1
330
1F
100
AcDbEntity
  8
0
  6
SLD-Сплошная
 62
     7
370
    25
100
AcDbPolyline
 90
        9
 70
   128
 43
0.0
 10
130.2750957155
 20
273.131142179
 10
130.2359864318
 20
272.48749569
 10
130.1976654388
 20
271.8438021033
 10
130.1601327937
 20
271.2000623778
 10
130.1233885524
 20
270.5562774726
 10
130.0874327695
 20
269.9124483469
 10
130.0522654987
 20
269.2685759599
 10
130.0178867924
 20
268.6246612709
 10
129.9842967018
 20
267.9807052391
  0
SPLINE
  5
2B2
330
1F
100
AcDbEntity
  8
0
  6
SLD-Сплошная
 62
     7
370
    25
100
AcDbSpline
210
0.0
220
0.0
230
1.0
 70
     8
 71
     3
 72
    10
 73
     6
 74
     0
 42
0.00000001
 43
0.00000001
 40
0.0
 40
0.0
 40
0.0
 40
0.0
 40
0.5
 40
0.5
 40
1.0
 40
1.0
 40
1.0
 40
1.0
 10
130.3249551323397
 20
273.9445845887718
 30
0.0
 10
130.3163207740714
 20
273.8066588746179
 30
0.0
 10
130.3079112873293
 20
273.6705196082871
 30
0.0
 10
130.291326966697
 20
273.3996207560875
 30
0.0
 10
130.2831704053812
 20
273.265126642025
 30
0.0
 10
130.2750957154642
 20
273.1311421788566
 30
0.0
  0
SPLINE
  5
2B3
330
1F
100
AcDbEntity
  8
0
  6
SLD-Сплошная
 62
     7
370
    25
100
AcDbSpline
210
0.0
220
0.0
230
1.0
 70
     8
 71
     3
 72
    14
 73
    10
 74
     0
 42
0.00000001
 43
0.00000001
 40
0.0
 40
0.0
 40
0.0
 40
0.0
 40
0.0000381661268658
 40
0.0000381661268658
 40
0.0000381661268658
 40
0.0000763301799645
 40
0.0000763301799645
 40
0.0000763301799645
 40
0.0000874201025539
 40
0.0000874201025539
 40
0.0000874201025539
 40
0.0000874201025539
 10
130.3249551323396
 20
273.9445845887722
 30
0.0
 10
130.3257500002001
 20
273.957281564009
 30
0.0
 10
130.3265447237214
 20
273.9699782775895
 30
0.0
 10
130.3273391081589
 20
273.9826696910309
 30
0.0
 10
130.3281334664925
 20
273.9953606874248
 30
0.0
 10
130.3289275797822
 20
274.0080478874798
 30
0.0
 10
130.3297214845377
 20
274.0207296667554
 30
0.0
 10
130.3299521693979
 20
274.0244146106469
 30
0.0
 10
130.3301828410974
 20
274.0280991659902
 30
0.0
 10
130.3304135038399
 20
274.0317833409732
 30
0.0
  0
SPLINE
  5
2B4
330
1F
100
AcDbEntity
  8
0
  6
SLD-Сплошная
 62
     7
370
    25
100
AcDbSpline
210
0.0
220
0.0
230
1.0
 70
     8
 71
     3
 72
    10
 73
     6
 74
     0
 42
0.00000001
 43
0.00000001
 40
0.0
 40
0.0
 40
0.0
 40
0.0
 40
0.5
 40
0.5
 40
1.0
 40
1.0
 40
1.0
 40
1.0
 10
130.3304134954782
 20
274.0317829499198
 30
0.0
 10
130.3308196687297
 20
274.0382702888088
 30
0.0
 10
130.3312236991751
 20
274.0447289667986
 30
0.0
 10
130.3320278531161
 20
274.057592354511
 30
0.0
 10
130.3324278997115
 20
274.0639964672226
 30
0.0
 10
130.332825941715
 20
274.0703733491416
 30
0.0
  0
LWPOLYLINE
  5
2B5
330
1F
100
AcDbEntity
  8
0
  6
SLD-Сплошная
 62
     7
370
    25
100
AcDbPolyline
 90
        9
 70
   128
 43
0.0
 10
130.3328259417
 20
274.0703733491
 10
130.3402944547
 20
274.1898030845
 10
130.3477903911
 20
274.3092311307
 10
130.3553137506
 20
274.4286574814
 10
130.3628645327
 20
274.5480821306
 10
130.3704427371
 20
274.667505072
 10
130.3780483633
 20
274.7869262994
 10
130.3856814111
 20
274.9063458067
 10
130.3933418799
 20
275.0257635877
  0
LINE
  5
2B6
330
1F
100
AcDbEntity
  8
0
  6
SLD-Сплошная
 62
     7
370
    25
100
AcDbLine
 10
130.3933418799
 20
275.0257635877
 30
0.0
 11
130.3933418799
 21
269.1009196471
 31
0.0
  0
ARC
  5
2B7
330
1F
100
AcDbEntity
  8
0
  6
SLD-Сплошная
 62
     7
370
    25
100
AcDbCircle
 10
477.4124171183
 20
241.3385391175
 30
0.0
 40
348.1278333485711
100
AcDbArc
 50
175.212098187
 51
175.4259385504
  0
ARC
  5
2B8
330
1F
100
AcDbEntity
  8
0
  6
SLD-Сплошная
 62
     7
370
    25
100
AcDbCircle
 10
477.4124128316
 20
240.1629689672
 30
0.0
 40
348.127829047221
100
AcDbArc
 50
175.2120981862
 51
175.4259385523
  0
LINE
  5
2B9
330
1F
100
AcDbEntity
  8
0
  6
SLD-Сплошная
 62
     7
370
    25
100
AcDbLine
 10
130.3933418799
 20
252.3464917373
 30
0.0
 11
130.3933418799
 21
267.9253491424
 31
0.0
  0
ARC
  5
2BA
330
1F
100
AcDbEntity
  8
0
  6
SLD-Сплошная
 62
     7
370
    25
100
AcDbCircle
 10
183.0414082767
 20
241.3191780143
 30
0.0
 40
53.79052466063989
100
AcDbArc
 50
167.631389618
 51
168.1702221697
  0
LINE
  5
2BB
330
1F
100
AcDbEntity
  8
0
  6
SLD-Сплошная
 62
     7
370
    25
100
AcDbLine
 10
130.3933418799
 20
250.4443787047
 30
0.0
 11
130.3933418799
 21
231.1878519401
 31
0.0
  0
ARC
  5
2BC
330
1F
100
AcDbEntity
  8
0
  6
SLD-Сплошная
 62
     7
370
    25
100
AcDbCircle
 10
183.0414080518
 20
242.2151656144
 30
0.0
 40
53.79052443046405
100
AcDbArc
 50
191.8297778287
 51
192.3686103827
  0
ARC
  5
2BD
330
1F
100
AcDbEntity
  8
0
  6
SLD-Сплошная
 62
     7
370
    25
100
AcDbCircle
 10
183.0414080249
 20
240.313052576
 30
0.0
 40
53.79052440302498
100
AcDbArc
 50
191.8297778285
 51
192.3686103828
  0
LINE
  5
2BE
330
1F
100
AcDbEntity
  8
0
  6
SLD-Сплошная
 62
     7
370
    25
100
AcDbLine
 10
130.39334188
 20
213.7068815024
 30
0.0
 11
130.39334188
 21
229.2857389075
 31
0.0
  0
ARC
  5
2BF
330
1F
100
AcDbEntity
  8
0
  6
SLD-Сплошная
 62
     7
370
    25
100
AcDbCircle
 10
477.4124094688
 20
241.4692613998
 30
0.0
 40
348.1278256729938
100
AcDbArc
 50
184.5740614462
 51
184.7879018144
  0
ARC
  5
2C0
330
1F
100
AcDbEntity
  8
0
  6
SLD-Сплошная
 62
     7
370
    25
100
AcDbCircle
 10
477.4124095003
 20
240.2936908977
 30
0.0
 40
348.1278257045576
100
AcDbArc
 50
184.5740614462
 51
184.7879018144
  0
LINE
  5
2C1
330
1F
100
AcDbEntity
  8
0
  6
SLD-Сплошная
 62
     7
370
    25
100
AcDbLine
 10
130.3933418799
 20
206.6064670573
 30
0.0
 11
130.3933418799
 21
212.5313109982
 31
0.0
  0
SPLINE
  5
2C2
330
1F
100
AcDbEntity
  8
0
  6
SLD-Сплошная
 62
     7
370
    25
100
AcDbSpline
210
0.0
220
0.0
230
1.0
 70
     8
 71
     3
 72
     8
 73
     4
 74
     0
 42
0.00000001
 43
0.00000001
 40
0.0
 40
0.0
 40
0.0
 40
0.0
 40
1.0
 40
1.0
 40
1.0
 40
1.0
 10
130.3933418799272
 20
206.6064670573344
 30
0.0
 10
130.3731895778217
 20
206.9200544372449
 30
0.0
 10
130.3533209078528
 20
207.2336597356749
 30
0.0
 10
130.3337359033593
 20
207.5472824252519
 30
0.0
  0
SPLINE
  5
2C3
330
1F
100
AcDbEntity
  8
0
  6
SLD-Сплошная
 62
     7
370
    25
100
AcDbSpline
210
0.0
220
0.0
230
1.0
 70
     8
 71
     3
 72
     9
 73
     5
 74
     0
 42
0.00000001
 43
0.00000001
 40
0.0
 40
0.0
 40
0.0
 40
0.0
 40
0.5
 40
1.0
 40
1.0
 40
1.0
 40
1.0
 10
130.3337066981082
 20
207.548410609763
 30
0.0
 10
130.3322363370244
 20
207.5716764944418
 30
0.0
 10
130.3293142215819
 20
207.61806049543
 30
0.0
 10
130.3264277686865
 20
207.6641619626826
 30
0.0
 10
130.3249937340968
 20
207.6871392287084
 30
0.0
  0
SPLINE
  5
2C4
330
1F
100
AcDbEntity
  8
0
  6
SLD-Сплошная
 62
     7
370
    25
100
AcDbSpline
210
0.0
220
0.0
230
1.0
 70
     8
 71
     3
 72
    10
 73
     6
 74
     0
 42
0.00000001
 43
0.00000001
 40
0.0
 40
0.0
 40
0.0
 40
0.0
 40
0.5
 40
0.5
 40
1.0
 40
1.0
 40
1.0
 40
1.0
 10
130.2750957154721
 20
208.5010884661745
 30
0.0
 10
130.2831604999736
 20
208.3672683646263
 30
0.0
 10
130.2912685230436
 20
208.2335734540716
 30
0.0
 10
130.3077949825706
 20
207.9636020173877
 30
0.0
 10
130.3161718814563
 20
207.827976056263
 30
0.0
 10
130.3247766474287
 20
207.6904974497874
 30
0.0
  0
LWPOLYLINE
  5
2C5
330
1F
100
AcDbEntity
  8
0
  6
SLD-Сплошная
 62
     7
370
    25
100
AcDbPolyline
 90
        9
 70
   128
 43
0.0
 10
129.9842968666
 20
213.6515222089
 10
130.0178869401
 20
213.007566577
 10
130.0522656282
 20
212.3636522877
 10
130.0874328799
 20
211.7197803004
 10
130.1233886426
 20
211.0759515744
 10
130.1601328629
 20
210.4321670688
 10
130.1976654859
 20
209.7884277429
 10
130.2359864558
 20
209.1447345557
 10
130.2750957155
 20
208.5010884661
  0
SPLINE
  5
2C6
330
1F
100
AcDbEntity
  8
0
  6
SLD-Сплошная
 62
     7
370
    25
100
AcDbSpline
210
0.0
220
0.0
230
1.0
 70
     8
 71
     3
 72
     8
 73
     4
 74
     0
 42
0.00000001
 43
0.00000001
 40
0.0
 40
0.0
 40
0.0
 40
0.0
 40
1.0
 40
1.0
 40
1.0
 40
1.0
 10
129.9843069256316
 20
213.6508236543006
 30
0.0
 10
129.9828303255901
 20
213.6812590456992
 30
0.0
 10
129.9812723853994
 20
213.7116904385537
 30
0.0
 10
129.9796330116231
 20
213.7421174406562
 30
0.0
  0
SPLINE
  5
2C7
330
1F
100
AcDbEntity
  8
0
  6
SLD-Сплошная
 62
     7
370
    25
100
AcDbSpline
210
0.0
220
0.0
230
1.0
 70
     8
 71
     3
 72
     8
 73
     4
 74
     0
 42
0.00000001
 43
0.00000001
 40
0.0
 40
0.0
 40
0.0
 40
0.0
 40
1.0
 40
1.0
 40
1.0
 40
1.0
 10
129.9491335331639
 20
214.3420990015636
 30
0.0
 10
129.9591862460127
 20
214.1420787741088
 30
0.0
 10
129.9693525952778
 20
213.9420806873478
 30
0.0
 10
129.9796325314927
 20
213.7421049200701
 30
0.0
  0
SPLINE
  5
2C8
330
1F
100
AcDbEntity
  8
0
  6
SLD-Сплошная
 62
     7
370
    25
100
AcDbSpline
210
0.0
220
0.0
230
1.0
 70
     8
 71
     3
 72
    11
 73
     7
 74
     0
 42
0.00000001
 43
0.00000001
 40
0.0
 40
0.0
 40
0.0
 40
0.0
 40
0.2459828000163798
 40
0.4944780328975112
 40
0.7458857223027354
 40
1.0
 40
1.0
 40
1.0
 40
1.0
 10
129.7616511900842
 20
218.3573334689549
 30
0.0
 10
129.7623150948483
 20
218.3422950043367
 30
0.0
 10
129.7636496854041
 20
218.3120644743904
 30
0.0
 10
129.7732699809555
 20
218.0949302141693
 30
0.0
 10
129.7866198879638
 20
217.7946066794566
 30
0.0
 10
129.7978191554583
 20
217.5429204217618
 30
0.0
 10
129.8034487699069
 20
217.4164035229076
 30
0.0
  0
LINE
  5
2C9
330
1F
100
AcDbEntity
  8
0
  6
SLD-Сплошная
 62
     7
370
    25
100
AcDbLine
 10
140.2856429471
 20
231.1878519402
 30
0.0
 11
130.3933418799
 21
231.1878519401
 31
0.0
  0
LINE
  5
2CA
330
1F
100
AcDbEntity
  8
0
  6
SLD-Сплошная
 62
     7
370
    25
100
AcDbLine
 10
140.2856429471
 20
267.9253491423
 30
0.0
 11
140.7856429496
 21
269.2203037617
 31
0.0
  0
LINE
  5
2CB
330
1F
100
AcDbEntity
  8
0
  6
SLD-Сплошная
 62
     7
370
    25
100
AcDbLine
 10
140.2856429496
 20
252.8411203879
 30
0.0
 11
140.2856429471
 21
267.9253491423
 31
0.0
  0
LINE
  5
2CC
330
1F
100
AcDbEntity
  8
0
  6
SLD-Сплошная
 62
     7
370
    25
100
AcDbLine
 10
140.7856429496
 20
212.4119268832
 30
0.0
 11
140.2856429471
 21
213.7068815026
 31
0.0
  0
LINE
  5
2CD
330
1F
100
AcDbEntity
  8
0
  6
SLD-Сплошная
 62
     7
370
    25
100
AcDbLine
 10
140.2856429471
 20
213.7068815026
 30
0.0
 11
140.2856429496
 21
228.7911102569
 31
0.0
  0
LINE
  5
2CE
330
1F
100
AcDbEntity
  8
0
  6
SLD-Сплошная
 62
     7
370
    25
100
AcDbLine
 10
140.2856429471
 20
267.9253491423
 30
0.0
 11
130.3933418799
 21
267.9253491424
 31
0.0
  0
LINE
  5
2CF
330
1F
100
AcDbEntity
  8
0
  6
SLD-Сплошная
 62
     7
370
    25
100
AcDbLine
 10
140.2856429471
 20
213.7068815026
 30
0.0
 11
130.39334188
 21
213.7068815024
 31
0.0
  0
LINE
  5
2D0
330
1F
100
AcDbEntity
  8
0
  6
SLD-Сплошная
 62
     7
370
    25
100
AcDbLine
 10
127.7218595814
 20
240.8161153226
 30
0.0
 11
127.7218595814
 21
219.0161153224
 31
0.0
  0
LINE
  5
2D1
330
1F
100
AcDbEntity
  8
0
  6
SLD-Сплошная
 62
     7
370
    25
100
AcDbLine
 10
127.7218595813
 20
262.6161153224
 30
0.0
 11
127.7218595814
 21
240.8161153226
 31
0.0
  0
LINE
  5
2D2
330
1F
100
AcDbEntity
  8
0
  6
SLD-Сплошная
 62
     7
370
    25
100
AcDbLine
 10
129.7218595813
 20
240.8161153226
 30
0.0
 11
129.7218595813
 21
262.6161153226
 31
0.0
  0
LINE
  5
2D3
330
1F
100
AcDbEntity
  8
0
  6
SLD-Сплошная
 62
     7
370
    25
100
AcDbLine
 10
129.7218595813
 20
219.0161153226
 30
0.0
 11
129.7218595813
 21
240.8161153226
 31
0.0
  0
LWPOLYLINE
  5
2D4
330
1F
100
AcDbEntity
  8
0
  6
SLD-Сплошная
 62
     7
370
    25
100
AcDbPolyline
 90
        9
 70
   128
 43
0.0
 10
140.285642947
 20
275.0257635877
 10
140.3481077673
 20
275.227144069
 10
140.4105826665
 20
275.4285214763
 10
140.4730676445
 20
275.629895809
 10
140.5355627011
 20
275.8312670667
 10
140.5980678361
 20
276.0326352489
 10
140.6605830495
 20
276.2340003551
 10
140.723108341
 20
276.4353623847
 10
140.7856429496
 20
276.6367215697
  0
LINE
  5
2D5
330
1F
100
AcDbEntity
  8
0
  6
SLD-Сплошная
 62
     7
370
    25
100
AcDbLine
 10
140.2856429496
 20
270.3958742663
 30
0.0
 11
140.285642947
 21
275.0257635877
 31
0.0
  0
LWPOLYLINE
  5
2D6
330
1F
100
AcDbEntity
  8
0
  6
SLD-Сплошная
 62
     7
370
    25
100
AcDbPolyline
 90
        9
 70
   128
 43
0.0
 10
140.7856429496
 20
204.9955090754
 10
140.7231075801
 20
205.1968680281
 10
140.6605822885
 20
205.3982300578
 10
140.5980670751
 20
205.5995951639
 10
140.53556194
 20
205.8009633462
 10
140.4730668834
 20
206.0023346039
 10
140.4105819055
 20
206.2037089367
 10
140.3481070063
 20
206.405086344
 10
140.285642947
 20
206.6064670574
  0
LINE
  5
2D7
330
1F
100
AcDbEntity
  8
0
  6
SLD-Сплошная
 62
     7
370
    25
100
AcDbLine
 10
140.285642947
 20
206.6064670574
 30
0.0
 11
140.2856429496
 21
211.2363563787
 31
0.0
  0
LINE
  5
2D8
330
1F
100
AcDbEntity
  8
0
  6
SLD-Сплошная
 62
     7
370
    25
100
AcDbLine
 10
140.285642947
 20
275.0257635877
 30
0.0
 11
130.3933418799
 21
275.0257635877
 31
0.0
  0
LINE
  5
2D9
330
1F
100
AcDbEntity
  8
0
  6
SLD-Сплошная
 62
     7
370
    25
100
AcDbLine
 10
140.285642947
 20
206.6064670574
 30
0.0
 11
130.3933418799
 21
206.6064670573
 31
0.0
  0
SPLINE
  5
2DA
330
1F
100
AcDbEntity
  8
0
  6
SLD-Сплошная
 62
     7
370
    25
100
AcDbSpline
210
0.0
220
0.0
230
1.0
 70
     8
 71
     3
 72
    14
 73
    10
 74
     0
 42
0.00000001
 43
0.00000001
 40
0.0
 40
0.0
 40
0.0
 40
0.0
 40
0.25
 40
0.25
 40
0.5
 40
0.5
 40
0.75
 40
0.75
 40
1.0
 40
1.0
 40
1.0
 40
1.0
 10
128.3839212292449
 20
278.3223668692899
 30
0.0
 10
128.0875306079198
 20
278.31905534906
 30
0.0
 10
127.8555338803354
 20
278.187703304443
 30
0.0
 10
127.5205982517017
 20
277.8233114232377
 30
0.0
 10
127.4176593506532
 20
277.5902715866536
 30
0.0
 10
127.3411094141578
 20
277.1768973783248
 30
0.0
 10
127.3404080257526
 20
276.9951912885771
 30
0.0
 10
127.3723283290332
 20
276.6631568729329
 30
0.0
 10
127.4049500207189
 20
276.5128285470356
 30
0.0
 10
127.4333212126232
 20
276.3688969705602
 30
0.0
  0
SPLINE
  5
2DB
330
1F
100
AcDbEntity
  8
0
  6
SLD-Сплошная
 62
     7
370
    25
100
AcDbSpline
210
0.0
220
0.0
230
1.0
 70
    24
 71
     3
 72
    14
 73
    10
 74
     0
 42
0.00000001
 43
0.00000001
 40
0.0
 40
0.0
 40
0.0
 40
0.0
 40
0.1029312141908724
 40
0.241567699025709
 40
0.3815329737335453
 40
0.5167218152520208
 40
0.6493392175973836
 40
0.7715884769906851
 40
0.9999999999999999
 40
0.9999999999999999
 40
0.9999999999999999
 40
0.9999999999999999
 10
127.2763063097911
 20
277.3519343477927
 30
0.0
 10
127.2770155176385
 20
277.3472319914132
 30
0.0
 10
127.2786799467349
 20
277.3361961028393
 30
0.0
 10
127.2856555449297
 20
277.2899448539388
 30
0.0
 10
127.3021895499841
 20
277.1803172117306
 30
0.0
 10
127.3220164887556
 20
277.0488559872671
 30
0.0
 10
127.3468406920942
 20
276.884260726
 30
0.0
 10
127.3795307982632
 20
276.6675111090097
 30
0.0
 10
127.4059170240296
 20
276.4925589599069
 30
0.0
 10
127.4231043409929
 20
276.3785995756937
 30
0.0
  0
SPLINE
  5
2DC
330
1F
100
AcDbEntity
  8
0
  6
SLD-Сплошная
 62
     7
370
    25
100
AcDbSpline
210
0.0
220
0.0
230
1.0
 70
     8
 71
     3
 72
    14
 73
    10
 74
     0
 42
0.00000001
 43
0.00000001
 40
0.0
 40
0.0
 40
0.0
 40
0.0
 40
0.25
 40
0.25
 40
0.5
 40
0.5
 40
0.75
 40
0.75
 40
1.0
 40
1.0
 40
1.0
 40
1.0
 10
127.433321212626
 20
205.2633336745693
 30
0.0
 10
127.4047640000127
 20
205.1184583850422
 30
0.0
 10
127.3720236369938
 20
204.9683694658077
 30
0.0
 10
127.3401249484437
 20
204.6367915146244
 30
0.0
 10
127.3409666229196
 20
204.4553024826689
 30
0.0
 10
127.4181803477041
 20
204.0399514527259
 30
0.0
 10
127.5214924361377
 20
203.8071617181227
 30
0.0
 10
127.8565880293517
 20
203.4437689430432
 30
0.0
 10
128.088371534141
 20
203.313165902563
 30
0.0
 10
128.3839212292423
 20
203.3098637758397
 30
0.0
  0
SPLINE
  5
2DD
330
1F
100
AcDbEntity
  8
0
  6
SLD-Сплошная
 62
     7
370
    25
100
AcDbSpline
210
0.0
220
0.0
230
1.0
 70
    24
 71
     3
 72
    13
 73
     9
 74
     0
 42
0.00000001
 43
0.00000001
 40
0.0
 40
0.0
 40
0.0
 40
0.0
 40
0.244172200990553
 40
0.3521200212430761
 40
0.5032858188004073
 40
0.6424920790804269
 40
0.7755943570699108
 40
1.0
 40
1.0
 40
1.0
 40
1.0
 10
127.423104340993
 20
205.2536310694394
 30
0.0
 10
127.4047856271284
 20
205.1321700318588
 30
0.0
 10
127.3783682631166
 20
204.9570114226495
 30
0.0
 10
127.3440607951642
 20
204.7295379938347
 30
0.0
 10
127.3195483081708
 20
204.5670095474649
 30
0.0
 10
127.2994148751234
 20
204.4335161326939
 30
0.0
 10
127.2808717687831
 20
204.3105672754374
 30
0.0
 10
127.2780880350148
 20
204.2921099102342
 30
0.0
 10
127.2763407015169
 20
204.280524329432
 30
0.0
  0
LINE
  5
2DE
330
1F
100
AcDbEntity
  8
0
  6
SLD-Сплошная
 62
     7
370
    25
100
AcDbLine
 10
127.4231043447
 20
276.3785995514
 30
0.0
 11
128.7979441016
 21
267.2628142065
 31
0.0
  0
SPLINE
  5
2DF
330
1F
100
AcDbEntity
  8
0
  6
SLD-Сплошная
 62
     7
370
    25
100
AcDbSpline
210
0.0
220
0.0
230
1.0
 70
     8
 71
     3
 72
     8
 73
     4
 74
     0
 42
0.00000001
 43
0.00000001
 40
0.0
 40
0.0
 40
0.0
 40
0.0
 40
1.0
 40
1.0
 40
1.0
 40
1.0
 10
127.4333980210418
 20
276.3689089873404
 30
0.0
 10
127.712949807558
 20
274.9705788231185
 30
0.0
 10
128.3442432248758
 20
273.9282858972992
 30
0.0
 10
128.8860599478628
 20
273.9647347284395
 30
0.0
  0
SPLINE
  5
2E0
330
1F
100
AcDbEntity
  8
0
  6
SLD-Сплошная
 62
     7
370
    25
100
AcDbSpline
210
0.0
220
0.0
230
1.0
 70
     8
 71
     3
 72
     8
 73
     4
 74
     0
 42
0.00000001
 43
0.00000001
 40
0.0
 40
0.0
 40
0.0
 40
0.0
 40
1.0
 40
1.0
 40
1.0
 40
1.0
 10
130.3580381884903
 20
207.5648082058253
 30
0.0
 10
130.3341255203347
 20
207.5974370029052
 30
0.0
 10
130.3102128521791
 20
207.630467645273
 30
0.0
 10
130.2863001840235
 20
207.6632610385391
 30
0.0
  0
SPLINE
  5
2E1
330
1F
100
AcDbEntity
  8
0
  6
SLD-Сплошная
 62
     7
370
    25
100
AcDbSpline
210
0.0
220
0.0
230
1.0
 70
     8
 71
     3
 72
     8
 73
     4
 74
     0
 42
0.00000001
 43
0.00000001
 40
0.0
 40
0.0
 40
0.0
 40
0.0
 40
1.0
 40
1.0
 40
1.0
 40
1.0
 10
128.650444269901
 20
207.6203912960072
 30
0.0
 10
128.1703974812424
 20
207.4008912680484
 30
0.0
 10
127.6731053253449
 20
206.4631749642404
 30
0.0
 10
127.4334573249569
 20
205.2633125554158
 30
0.0
  0
LINE
  5
2E2
330
1F
100
AcDbEntity
  8
0
  6
SLD-Сплошная
 62
     7
370
    25
100
AcDbLine
 10
128.7979441016
 20
214.3694164386
 30
0.0
 11
127.4231043447
 21
205.2536310937
 31
0.0
  0
LINE
  5
2E3
330
1F
100
AcDbEntity
  8
0
  6
SLD-Сплошная
 62
     7
370
    25
100
AcDbLine
 10
142.2856429456
 20
203.6716042146
 30
0.0
 11
142.2856429456
 21
204.9955090754
 31
0.0
  0
LINE
  5
2E4
330
1F
100
AcDbEntity
  8
0
  6
SLD-Сплошная
 62
     7
370
    25
100
AcDbLine
 10
142.2856429456
 20
276.6367215697
 30
0.0
 11
142.2856429456
 21
277.9606264305
 31
0.0
  0
LINE
  5
2E5
330
1F
100
AcDbEntity
  8
0
  6
SLD-Сплошная
 62
     7
370
    25
100
AcDbLine
 10
142.2856429456
 20
277.9606264305
 30
0.0
 11
142.2856429456
 21
278.3223668693
 31
0.0
  0
LINE
  5
2E6
330
1F
100
AcDbEntity
  8
0
  6
SLD-Сплошная
 62
     7
370
    25
100
AcDbLine
 10
142.2856429456
 20
203.3098637758
 30
0.0
 11
142.2856429456
 21
203.6716042146
 31
0.0
  0
SPLINE
  5
2E7
330
1F
100
AcDbEntity
  8
0
  6
SLD-Сплошная
 62
     7
370
    25
100
AcDbSpline
210
0.0
220
0.0
230
1.0
 70
     8
 71
     3
 72
    13
 73
     9
 74
     0
 42
0.00000001
 43
0.00000001
 40
0.0
 40
0.0
 40
0.0
 40
0.0
 40
0.1690005748901711
 40
0.3360474882242029
 40
0.4999844586435358
 40
0.6916171670970783
 40
0.8331098958478766
 40
1.0
 40
1.0
 40
1.0
 40
1.0
 10
128.7979781166175
 20
267.2628193577402
 30
0.0
 10
128.8252960427041
 20
267.0816833944713
 30
0.0
 10
128.8796160972418
 20
266.7215054156501
 30
0.0
 10
128.960516533612
 20
266.1850748579925
 30
0.0
 10
129.0451288310043
 20
265.6240351280753
 30
0.0
 10
129.1256458770772
 20
265.0901251306084
 30
0.0
 10
129.2066894770698
 20
264.5527802582756
 30
0.0
 10
129.2566871133845
 20
264.2212758928111
 30
0.0
 10
129.2837447503267
 20
264.0418729164571
 30
0.0
  0
SPLINE
  5
2E8
330
1F
100
AcDbEntity
  8
0
  6
SLD-Сплошная
 62
     7
370
    25
100
AcDbSpline
210
0.0
220
0.0
230
1.0
 70
     8
 71
     3
 72
    12
 73
     8
 74
     0
 42
0.00000001
 43
0.00000001
 40
0.0
 40
0.0
 40
0.0
 40
0.0
 40
0.1593326241128844
 40
0.3264919891081973
 40
0.4999932487376227
 40
0.6398948426748589
 40
1.0
 40
1.0
 40
1.0
 40
1.0
 10
129.2837451326117
 20
217.5903576709965
 30
0.0
 10
129.2579141344038
 20
217.4190819721645
 30
0.0
 10
129.2049832670907
 20
217.068117165623
 30
0.0
 10
129.1239501456306
 20
216.5308197621492
 30
0.0
 10
129.0460972035848
 20
216.0146216372677
 30
0.0
 10
128.9370449711866
 20
215.2915259525468
 30
0.0
 10
128.8562019756158
 20
214.7554752300153
 30
0.0
 10
128.7979788024983
 20
214.3694111833118
 30
0.0
  0
LINE
  5
2E9
330
1F
100
AcDbEntity
  8
0
  6
SLD-Сплошная
 62
     7
370
    25
100
AcDbLine
 10
142.2856429456
 20
278.3223668693
 30
0.0
 11
142.2856429456
 21
278.6161153228
 31
0.0
  0
LINE
  5
2EA
330
1F
100
AcDbEntity
  8
0
  6
SLD-Сплошная
 62
     7
370
    25
100
AcDbLine
 10
142.2856429456
 20
203.0161153223
 30
0.0
 11
142.2856429456
 21
203.3098637758
 31
0.0
  0
SPLINE
  5
2EB
330
1F
100
AcDbEntity
  8
0
  6
SLD-Сплошная
 62
     7
370
    25
100
AcDbSpline
210
0.0
220
0.0
230
1.0
 70
     8
 71
     3
 72
    11
 73
     7
 74
     0
 42
0.00000001
 43
0.00000001
 40
0.0
 40
0.0
 40
0.0
 40
0.0
 40
0.2545406183465437
 40
0.5035120690207461
 40
0.7518827466177058
 40
1.0
 40
1.0
 40
1.0
 40
1.0
 10
129.7184963448397
 20
217.388351922963
 30
0.0
 10
129.7144549452905
 20
217.4971550952016
 30
0.0
 10
129.7064605691395
 20
217.7123809036629
 30
0.0
 10
129.6920112057184
 20
217.9755107722867
 30
0.0
 10
129.6916309878716
 20
218.1596665594905
 30
0.0
 10
129.6915179473617
 20
218.1843090538461
 30
0.0
 10
129.6914614559566
 20
218.196624011843
 30
0.0
  0
SPLINE
  5
2EC
330
1F
100
AcDbEntity
  8
0
  6
SLD-Сплошная
 62
     7
370
    25
100
AcDbSpline
210
0.0
220
0.0
230
1.0
 70
     8
 71
     3
 72
    12
 73
     8
 74
     0
 42
0.00000001
 43
0.00000001
 40
0.0
 40
0.0
 40
0.0
 40
0.0
 40
0.0009281686481202
 40
0.2477296526200045
 40
0.4948742721126874
 40
0.7456357760658926
 40
0.9999999999999999
 40
0.9999999999999999
 40
0.9999999999999999
 40
0.9999999999999999
 10
129.6914614559568
 20
263.4356066332859
 30
0.0
 10
129.691461200647
 20
263.4355301629507
 30
0.0
 10
129.6913930580695
 20
263.4151201118028
 30
0.0
 10
129.6919545412559
 20
263.4909945530062
 30
0.0
 10
129.6956347976057
 20
263.6595496717662
 30
0.0
 10
129.7032177130943
 20
263.9230504154152
 30
0.0
 10
129.7133393088706
 20
264.136425602947
 30
0.0
 10
129.7184362020053
 20
264.2438741271201
 30
0.0
  0
LINE
  5
2ED
330
1F
100
AcDbEntity
  8
0
  6
SLD-Сплошная
 62
     7
370
    25
100
AcDbLine
 10
146.2856429496
 20
27.1492809928
 30
0.0
 11
147.7218595807
 21
27.1492809928
 31
0.0
  0
LINE
  5
2EE
330
1F
100
AcDbEntity
  8
0
  6
SLD-Сплошная
 62
     7
370
    25
100
AcDbLine
 10
271.7218595807
 20
76.0492809928
 30
0.0
 11
261.7218595807
 21
76.0492809928
 31
0.0
  0
LINE
  5
2EF
330
1F
100
AcDbEntity
  8
0
  6
SLD-Сплошная
 62
     7
370
    25
100
AcDbLine
 10
198.5659989873
 20
74.4992809928
 30
0.0
 11
185.1654300805
 21
74.4992809928
 31
0.0
  0
ARC
  5
2F0
330
1F
100
AcDbEntity
  8
0
  6
SLD-Сплошная
 62
     7
370
    25
100
AcDbCircle
 10
198.5659989873
 20
-125.5007190072
 30
0.0
 40
200.000000000004
100
AcDbArc
 50
89.8624009634
 51
90.0
  0
LINE
  5
2F1
330
1F
100
AcDbEntity
  8
0
  6
SLD-Сплошная
 62
     7
370
    25
100
AcDbLine
 10
240.6896145539
 20
34.0446733033
 30
0.0
 11
245.9879216998
 21
34.2914888533
 31
0.0
  0
LINE
  5
2F2
330
1F
100
AcDbEntity
  8
0
  6
SLD-Сплошная
 62
     7
370
    25
100
AcDbLine
 10
245.9879216998
 20
72.5070731324
 30
0.0
 11
240.6896145539
 21
72.7538886824
 31
0.0
  0
LINE
  5
2F3
330
1F
100
AcDbEntity
  8
0
  6
SLD-Сплошная
 62
     7
370
    25
100
AcDbLine
 10
261.7218595807
 20
30.7492809928
 30
0.0
 11
271.7218595807
 21
30.7492809928
 31
0.0
  0
LINE
  5
2F4
330
1F
100
AcDbEntity
  8
0
  6
SLD-Сплошная
 62
     7
370
    25
100
AcDbLine
 10
271.7218595807
 20
33.9492809928
 30
0.0
 11
284.7218595807
 21
33.9492809928
 31
0.0
  0
LINE
  5
2F5
330
1F
100
AcDbEntity
  8
0
  6
SLD-Сплошная
 62
     7
370
    25
100
AcDbLine
 10
284.7218595807
 20
72.8492809928
 30
0.0
 11
271.7218595807
 21
72.8492809928
 31
0.0
  0
LINE
  5
2F6
330
1F
100
AcDbEntity
  8
0
  6
SLD-Сплошная
 62
     7
370
    25
100
AcDbLine
 10
160.6906448628
 20
42.0992809928
 30
0.0
 11
160.6906448628
 21
64.6992809928
 31
0.0
  0
LINE
  5
2F7
330
1F
100
AcDbEntity
  8
0
  6
SLD-Сплошная
 62
     7
370
    25
100
AcDbLine
 10
142.2856429456
 20
17.4953613669
 30
0.0
 11
146.2856429496
 21
17.4953613669
 31
0.0
  0
LINE
  5
2F8
330
1F
100
AcDbEntity
  8
0
  6
SLD-Сплошная
 62
     7
370
    25
100
AcDbLine
 10
146.2856429496
 20
89.1953613669
 30
0.0
 11
142.2856429456
 21
89.1953613669
 31
0.0
  0
ARC
  5
2F9
330
1F
100
AcDbEntity
  8
0
  6
SLD-Сплошная
 62
     7
370
    25
100
AcDbCircle
 10
659.3437051154
 20
53.3453613668
 30
0.0
 40
530.0580621657901
100
AcDbArc
 50
182.3246458877
 51
182.4283755483
  0
ARC
  5
2FA
330
1F
100
AcDbEntity
  8
0
  6
SLD-Сплошная
 62
     7
370
    25
100
AcDbCircle
 10
659.3437051154
 20
53.3453613668
 30
0.0
 40
530.0580621657901
100
AcDbArc
 50
177.571609768
 51
177.6753541123
  0
LINE
  5
2FB
330
1F
100
AcDbEntity
  8
0
  6
SLD-Сплошная
 62
     7
370
    25
100
AcDbLine
 10
129.7218595813
 20
75.1453613668
 30
0.0
 11
127.7218595814
 21
75.1453613668
 31
0.0
  0
LINE
  5
2FC
330
1F
100
AcDbEntity
  8
0
  6
SLD-Сплошная
 62
     7
370
    25
100
AcDbLine
 10
127.7218595813
 20
31.5453613668
 30
0.0
 11
129.7218595813
 21
31.5453613668
 31
0.0
  0
ARC
  5
2FD
330
1F
100
AcDbEntity
  8
0
  6
SLD-Сплошная
 62
     7
370
    25
100
AcDbCircle
 10
285.3851929146
 20
53.3453613668
 30
0.0
 40
159.1633333333635
100
AcDbArc
 50
172.1276677745
 51
187.8723322253
  0
SPLINE
  5
2FE
330
1F
100
AcDbEntity
  8
0
  6
SLD-Сплошная
 62
     7
370
    25
100
AcDbSpline
210
0.0
220
0.0
230
1.0
 70
     8
 71
     3
 72
    15
 73
    11
 74
     0
 42
0.00000001
 43
0.00000001
 40
0.0
 40
0.0
 40
0.0
 40
0.0
 40
0.115061127502156
 40
0.2382237798299302
 40
0.3678098125710752
 40
0.5005920166630838
 40
0.6332852643218844
 40
0.7626283325536848
 40
0.8852404345945581
 40
1.0
 40
1.0
 40
1.0
 40
1.0
 10
128.3638787778941
 20
91.14536136196244
 30
0.0
 10
128.2909605123494
 20
91.14103858511635
 30
0.0
 10
128.1399897612906
 20
91.13208866204509
 30
0.0
 10
127.9160999447813
 20
91.05931342510803
 30
0.0
 10
127.7035394829689
 20
90.93621087965101
 30
0.0
 10
127.5185218339607
 20
90.76457772996437
 30
0.0
 10
127.3789227033919
 20
90.55457988673324
 30
0.0
 10
127.2913871714157
 20
90.3256067741035
 30
0.0
 10
127.2561971273083
 20
90.09360552040275
 30
0.0
 10
127.2707713728516
 20
89.94365567720989
 30
0.0
 10
127.2778174289486
 20
89.87116101505178
 30
0.0
  0
SPLINE
  5
2FF
330
1F
100
AcDbEntity
  8
0
  6
SLD-Сплошная
 62
     7
370
    25
100
AcDbSpline
210
0.0
220
0.0
230
1.0
 70
     8
 71
     3
 72
    15
 73
    11
 74
     0
 42
0.00000001
 43
0.00000001
 40
0.0
 40
0.0
 40
0.0
 40
0.0
 40
0.1147595654054416
 40
0.2373716674463171
 40
0.3667147356781261
 40
0.49940798333693
 40
0.6321901874289445
 40
0.7617762201700784
 40
0.8849388724978408
 40
1.0
 40
1.0
 40
1.0
 40
1.0
 10
127.2778174289489
 20
16.81956171867014
 30
0.0
 10
127.2707713728519
 20
16.74706705651204
 30
0.0
 10
127.2561971273086
 20
16.59711721331918
 30
0.0
 10
127.291387171416
 20
16.36511595961841
 30
0.0
 10
127.3789227033921
 20
16.13614284698871
 30
0.0
 10
127.518521833961
 20
15.92614500375756
 30
0.0
 10
127.7035394829692
 20
15.75451185407091
 30
0.0
 10
127.9160999447816
 20
15.6314093086139
 30
0.0
 10
128.1399897612908
 20
15.55863407167685
 30
0.0
 10
128.2909605123497
 20
15.54968414860558
 30
0.0
 10
128.3638787778943
 20
15.54536137175949
 30
0.0
  0
LINE
  5
300
330
1F
100
AcDbEntity
  8
0
  6
SLD-Сплошная
 62
     7
370
    25
100
AcDbLine
 10
142.2856429456
 20
91.1453613671
 30
0.0
 11
128.328597815
 21
91.1453613671
 31
0.0
  0
LINE
  5
301
330
1F
100
AcDbEntity
  8
0
  6
SLD-Сплошная
 62
     7
370
    25
100
AcDbLine
 10
128.328597815
 20
15.5453613666
 30
0.0
 11
142.2856429456
 21
15.5453613666
 31
0.0
  0
SPLINE
  5
302
330
1F
100
AcDbEntity
  8
0
  6
SLD-Сплошная
 62
     7
370
    25
100
AcDbSpline
210
0.0
220
0.0
230
1.0
 70
     8
 71
     3
 72
    11
 73
     7
 74
     0
 42
0.00000001
 43
0.00000001
 40
0.0
 40
0.0
 40
0.0
 40
0.0
 40
0.2473676363737854
 40
0.499364223182135
 40
0.7527981594371855
 40
1.0
 40
1.0
 40
1.0
 40
1.0
 10
129.761449322006
 20
30.88898394532543
 30
0.0
 10
129.7610695739366
 20
30.87382423244623
 30
0.0
 10
129.7603029716337
 20
30.84322112544099
 30
0.0
 10
129.7471603532784
 20
30.79861673402112
 30
0.0
 10
129.7242053426735
 20
30.75810017033702
 30
0.0
 10
129.702239528558
 20
30.73664111538188
 30
0.0
 10
129.6913933407099
 20
30.72604515295312
 30
0.0
  0
SPLINE
  5
303
330
1F
100
AcDbEntity
  8
0
  6
SLD-Сплошная
 62
     7
370
    25
100
AcDbSpline
210
0.0
220
0.0
230
1.0
 70
     8
 71
     3
 72
    11
 73
     7
 74
     0
 42
0.00000001
 43
0.00000001
 40
0.0
 40
0.0
 40
0.0
 40
0.0
 40
0.2472018405627525
 40
0.500635776817818
 40
0.7526323636262385
 40
1.0
 40
1.0
 40
1.0
 40
1.0
 10
129.6913933407097
 20
75.96467758076886
 30
0.0
 10
129.7022395285578
 20
75.95408161834011
 30
0.0
 10
129.7242053426734
 20
75.93262256338495
 30
0.0
 10
129.7471603532782
 20
75.89210599970086
 30
0.0
 10
129.7603029716336
 20
75.847501608281
 30
0.0
 10
129.7610695739363
 20
75.81689850127573
 30
0.0
 10
129.7614493220057
 20
75.80173878839655
 30
0.0
  0
SPLINE
  5
304
330
1F
100
AcDbEntity
  8
0
  6
SLD-Сплошная
 62
     7
370
    25
100
AcDbSpline
210
0.0
220
0.0
230
1.0
 70
     8
 71
     3
 72
    11
 73
     7
 74
     0
 42
0.00000001
 43
0.00000001
 40
0.0
 40
0.0
 40
0.0
 40
0.0
 40
0.2956342291613273
 40
0.6283291321400097
 40
0.8791568580407393
 40
1.0
 40
1.0
 40
1.0
 40
1.0
 10
129.7602181995149
 20
30.77485068062368
 30
0.0
 10
129.6974586681561
 20
30.72323687948003
 30
0.0
 10
129.5640720776248
 20
30.61353897686896
 30
0.0
 10
129.4357882093088
 20
30.40797312725574
 30
0.0
 10
129.3321335666035
 20
30.24534767836646
 30
0.0
 10
129.2956031512715
 20
30.15045842589628
 30
0.0
 10
129.2837258411362
 20
30.11960662555829
 30
0.0
  0
SPLINE
  5
305
330
1F
100
AcDbEntity
  8
0
  6
SLD-Сплошная
 62
     7
370
    25
100
AcDbSpline
210
0.0
220
0.0
230
1.0
 70
     8
 71
     3
 72
    11
 73
     7
 74
     0
 42
0.00000001
 43
0.00000001
 40
0.0
 40
0.0
 40
0.0
 40
0.0
 40
0.1208431419591875
 40
0.3716708678599919
 40
0.7043657708386459
 40
1.0
 40
1.0
 40
1.0
 40
1.0
 10
129.283725841136
 20
76.57111610816364
 30
0.0
 10
129.2956031512712
 20
76.54026430782568
 30
0.0
 10
129.3321335666033
 20
76.44537505535548
 30
0.0
 10
129.4357882093086
 20
76.28274960646628
 30
0.0
 10
129.5640720776247
 20
76.077183756853
 30
0.0
 10
129.6974586681559
 20
75.96748585424196
 30
0.0
 10
129.7602181995147
 20
75.9158720530983
 30
0.0
  0
LINE
  5
306
330
1F
100
AcDbEntity
  8
0
  6
SLD-Сплошная
 62
     7
370
    25
100
AcDbLine
 10
159.3518471058
 20
36.0492809928
 30
0.0
 11
155.6763218553
 21
36.0492809928
 31
0.0
  0
LINE
  5
307
330
1F
100
AcDbEntity
  8
0
  6
SLD-Сплошная
 62
     7
370
    25
100
AcDbLine
 10
155.6763218553
 20
42.0992809928
 30
0.0
 11
159.3518471058
 21
42.0992809928
 31
0.0
  0
LINE
  5
308
330
1F
100
AcDbEntity
  8
0
  6
SLD-Сплошная
 62
     7
370
    25
100
AcDbLine
 10
155.6763218553
 20
36.0492809928
 30
0.0
 11
150.1763218553
 21
36.0492809928
 31
0.0
  0
LINE
  5
309
330
1F
100
AcDbEntity
  8
0
  6
SLD-Сплошная
 62
     7
370
    25
100
AcDbLine
 10
150.1763218553
 20
42.0992809928
 30
0.0
 11
150.1763218553
 21
36.0492809928
 31
0.0
  0
LINE
  5
30A
330
1F
100
AcDbEntity
  8
0
  6
SLD-Сплошная
 62
     7
370
    25
100
AcDbLine
 10
150.1763218553
 20
42.0992809928
 30
0.0
 11
155.6763218553
 21
42.0992809928
 31
0.0
  0
LINE
  5
30B
330
1F
100
AcDbEntity
  8
0
  6
SLD-Сплошная
 62
     7
370
    25
100
AcDbLine
 10
150.1763218553
 20
64.6992809928
 30
0.0
 11
155.6763218553
 21
64.6992809928
 31
0.0
  0
LINE
  5
30C
330
1F
100
AcDbEntity
  8
0
  6
SLD-Сплошная
 62
     7
370
    25
100
AcDbLine
 10
150.1763218553
 20
70.7492809928
 30
0.0
 11
150.1763218553
 21
64.6992809928
 31
0.0
  0
LINE
  5
30D
330
1F
100
AcDbEntity
  8
0
  6
SLD-Сплошная
 62
     7
370
    25
100
AcDbLine
 10
155.6763218553
 20
70.7492809928
 30
0.0
 11
150.1763218553
 21
70.7492809928
 31
0.0
  0
LINE
  5
30E
330
1F
100
AcDbEntity
  8
0
  6
SLD-Сплошная
 62
     7
370
    25
100
AcDbLine
 10
155.6763218553
 20
64.6992809928
 30
0.0
 11
159.3518471058
 21
64.6992809928
 31
0.0
  0
LINE
  5
30F
330
1F
100
AcDbEntity
  8
0
  6
SLD-Сплошная
 62
     7
370
    25
100
AcDbLine
 10
159.3518471058
 20
70.7492809928
 30
0.0
 11
155.6763218553
 21
70.7492809928
 31
0.0
  0
LINE
  5
310
330
1F
100
AcDbEntity
  8
0
  6
SLD-Сплошная
 62
     7
370
    25
100
AcDbLine
 10
178.7738595807
 20
42.0992809928
 30
0.0
 11
178.7738595807
 21
36.0492809928
 31
0.0
  0
LINE
  5
311
330
1F
100
AcDbEntity
  8
0
  6
SLD-Сплошная
 62
     7
370
    25
100
AcDbLine
 10
159.3518471058
 20
42.0992809928
 30
0.0
 11
178.7738595807
 21
42.0992809928
 31
0.0
  0
LINE
  5
312
330
1F
100
AcDbEntity
  8
0
  6
SLD-Сплошная
 62
     7
370
    25
100
AcDbLine
 10
178.7738595807
 20
36.0492809928
 30
0.0
 11
159.3518471058
 21
36.0492809928
 31
0.0
  0
LINE
  5
313
330
1F
100
AcDbEntity
  8
0
  6
SLD-Сплошная
 62
     7
370
    25
100
AcDbLine
 10
178.7738595807
 20
70.7492809928
 30
0.0
 11
178.7738595807
 21
64.6992809928
 31
0.0
  0
LINE
  5
314
330
1F
100
AcDbEntity
  8
0
  6
SLD-Сплошная
 62
     7
370
    25
100
AcDbLine
 10
159.3518471058
 20
70.7492809928
 30
0.0
 11
178.7738595807
 21
70.7492809928
 31
0.0
  0
LINE
  5
315
330
1F
100
AcDbEntity
  8
0
  6
SLD-Сплошная
 62
     7
370
    25
100
AcDbLine
 10
159.3518471058
 20
64.6992809928
 30
0.0
 11
178.7738595807
 21
64.6992809928
 31
0.0
  0
LINE
  5
316
330
1F
100
AcDbEntity
  8
0
  6
SLD-Сплошная
 62
     7
370
    25
100
AcDbLine
 10
147.7218595807
 20
78.1492809928
 30
0.0
 11
181.2218595807
 21
78.1492809928
 31
0.0
  0
LINE
  5
317
330
1F
100
AcDbEntity
  8
0
  6
SLD-Сплошная
 62
     7
370
    25
100
AcDbLine
 10
147.7218595807
 20
28.6492809928
 30
0.0
 11
181.2218595807
 21
28.6492809928
 31
0.0
  0
LINE
  5
318
330
1F
100
AcDbEntity
  8
0
  6
SLD-Сплошная
 62
     7
370
    25
100
AcDbLine
 10
181.2218595807
 20
28.6492809928
 30
0.0
 11
181.2218595807
 21
44.4992809928
 31
0.0
  0
SPLINE
  5
319
330
1F
100
AcDbEntity
  8
0
  6
SLD-Сплошная
 62
     7
370
    25
100
AcDbSpline
210
0.0
220
0.0
230
1.0
 70
    24
 71
     3
 72
    14
 73
    10
 74
     0
 42
0.00000001
 43
0.00000001
 40
0.0
 40
0.0
 40
0.0
 40
0.0
 40
0.25
 40
0.25
 40
0.5
 40
0.5
 40
0.7500000000000001
 40
0.7500000000000001
 40
1.0
 40
1.0
 40
1.0
 40
1.0
 10
181.2218595807205
 20
44.49928099284093
 30
0.0
 10
181.2218595807206
 20
45.90034954150583
 30
0.0
 10
181.2218595807206
 20
47.35066209374195
 30
0.0
 10
181.2218595807206
 20
50.30197210201737
 30
0.0
 10
181.2218595807206
 20
51.80291567250122
 30
0.0
 10
181.2218595807206
 20
54.80590801647559
 30
0.0
 10
181.2218595807206
 20
56.30790196078518
 30
0.0
 10
181.2218595807206
 20
59.26337884346174
 30
0.0
 10
181.2218595807206
 20
60.71680782019371
 30
0.0
 10
181.2218595807206
 20
62.12197442111277
 30
0.0
  0
LINE
  5
31A
330
1F
100
AcDbEntity
  8
0
  6
SLD-Сплошная
 62
     7
370
    25
100
AcDbLine
 10
181.2218595807
 20
62.1219744211
 30
0.0
 11
181.2218595807
 21
78.1492809928
 31
0.0
  0
LINE
  5
31B
330
1F
100
AcDbEntity
  8
0
  6
SLD-Сплошная
 62
     7
370
    25
100
AcDbLine
 10
147.7218595807
 20
39.8992809928
 30
0.0
 11
150.1763218553
 21
39.8992809928
 31
0.0
  0
LINE
  5
31C
330
1F
100
AcDbEntity
  8
0
  6
SLD-Сплошная
 62
     7
370
    25
100
AcDbLine
 10
147.7218595807
 20
39.8992809928
 30
0.0
 11
147.7218595807
 21
27.1492809928
 31
0.0
  0
LINE
  5
31D
330
1F
100
AcDbEntity
  8
0
  6
SLD-Сплошная
 62
     7
370
    25
100
AcDbLine
 10
147.7218595807
 20
79.6492809928
 30
0.0
 11
147.7218595807
 21
66.8992809928
 31
0.0
  0
LINE
  5
31E
330
1F
100
AcDbEntity
  8
0
  6
SLD-Сплошная
 62
     7
370
    25
100
AcDbLine
 10
147.7218595807
 20
66.8992809928
 30
0.0
 11
150.1763218553
 21
66.8992809928
 31
0.0
  0
LINE
  5
31F
330
1F
100
AcDbEntity
  8
0
  6
SLD-Сплошная
 62
     7
370
    25
100
AcDbLine
 10
146.2856429496
 20
79.6492809928
 30
0.0
 11
147.7218595807
 21
79.6492809928
 31
0.0
  0
LINE
  5
320
330
1F
100
AcDbEntity
  8
0
  6
SLD-Сплошная
 62
     7
370
    25
100
AcDbLine
 10
271.7218595807
 20
76.0211642025
 30
0.0
 11
271.7218595807
 21
76.0492809928
 31
0.0
  0
LINE
  5
321
330
1F
100
AcDbEntity
  8
0
  6
SLD-Сплошная
 62
     7
370
    25
100
AcDbLine
 10
271.7218595807
 20
76.0211642025
 30
0.0
 11
264.7218595807
 21
76.0211642025
 31
0.0
  0
LINE
  5
322
330
1F
100
AcDbEntity
  8
0
  6
SLD-Сплошная
 62
     7
370
    25
100
AcDbLine
 10
264.7218595807
 20
76.0211642025
 30
0.0
 11
264.7218595807
 21
66.0373055805
 31
0.0
  0
LINE
  5
323
330
1F
100
AcDbEntity
  8
0
  6
SLD-Сплошная
 62
     7
370
    25
100
AcDbLine
 10
271.7218595807
 20
66.0373055805
 30
0.0
 11
264.7218595807
 21
66.0373055805
 31
0.0
  0
LINE
  5
324
330
1F
100
AcDbEntity
  8
0
  6
SLD-Сплошная
 62
     7
370
    25
100
AcDbLine
 10
271.7218595807
 20
63.7331478631
 30
0.0
 11
271.7218595807
 21
66.0373055805
 31
0.0
  0
LINE
  5
325
330
1F
100
AcDbEntity
  8
0
  6
SLD-Сплошная
 62
     7
370
    25
100
AcDbLine
 10
271.7218595807
 20
63.7331478631
 30
0.0
 11
264.7218595807
 21
63.7331478631
 31
0.0
  0
LINE
  5
326
330
1F
100
AcDbEntity
  8
0
  6
SLD-Сплошная
 62
     7
370
    25
100
AcDbLine
 10
264.7218595807
 20
63.7331478631
 30
0.0
 11
264.7218595807
 21
43.4401752784
 31
0.0
  0
LINE
  5
327
330
1F
100
AcDbEntity
  8
0
  6
SLD-Сплошная
 62
     7
370
    25
100
AcDbLine
 10
271.7218595807
 20
43.4401752784
 30
0.0
 11
264.7218595807
 21
43.4401752784
 31
0.0
  0
LINE
  5
328
330
1F
100
AcDbEntity
  8
0
  6
SLD-Сплошная
 62
     7
370
    25
100
AcDbLine
 10
271.7218595807
 20
41.1112646534
 30
0.0
 11
271.7218595807
 21
43.4401752784
 31
0.0
  0
LINE
  5
329
330
1F
100
AcDbEntity
  8
0
  6
SLD-Сплошная
 62
     7
370
    25
100
AcDbLine
 10
271.7218595807
 20
41.1112646534
 30
0.0
 11
264.7218595807
 21
41.1112646534
 31
0.0
  0
LINE
  5
32A
330
1F
100
AcDbEntity
  8
0
  6
SLD-Сплошная
 62
     7
370
    25
100
AcDbLine
 10
264.7218595807
 20
41.1112646534
 30
0.0
 11
264.7218595807
 21
33.889439723
 31
0.0
  0
LINE
  5
32B
330
1F
100
AcDbEntity
  8
0
  6
SLD-Сплошная
 62
     7
370
    25
100
AcDbLine
 10
261.7218595807
 20
76.0492809928
 30
0.0
 11
261.7218595807
 21
33.889439723
 31
0.0
  0
ARC
  5
32C
330
1F
100
AcDbEntity
  8
0
  6
SLD-Сплошная
 62
     7
370
    25
100
AcDbCircle
 10
253.7718595807
 20
72.9492809928
 30
0.0
 40
1.750000000000014
100
AcDbArc
 50
49.6464066901
 51
90.0
  0
ARC
  5
32D
330
1F
100
AcDbEntity
  8
0
  6
SLD-Сплошная
 62
     7
370
    25
100
AcDbCircle
 10
253.7718595807
 20
33.8492809928
 30
0.0
 40
1.750000000000007
100
AcDbArc
 50
270.0
 51
310.3535933099
  0
LINE
  5
32E
330
1F
100
AcDbEntity
  8
0
  6
SLD-Сплошная
 62
     7
370
    25
100
AcDbLine
 10
251.5218595807
 20
72.4492809928
 30
0.0
 11
251.5218595807
 21
34.3492809928
 31
0.0
  0
ARC
  5
32F
330
1F
100
AcDbEntity
  8
0
  6
SLD-Сплошная
 62
     7
370
    25
100
AcDbCircle
 10
253.7718595807
 20
72.4492809928
 30
0.0
 40
2.250000000000028
100
AcDbArc
 50
90.0
 51
180.0
  0
ARC
  5
330
330
1F
100
AcDbEntity
  8
0
  6
SLD-Сплошная
 62
     7
370
    25
100
AcDbCircle
 10
253.7718595807
 20
34.3492809928
 30
0.0
 40
2.250000000000028
100
AcDbArc
 50
180.0
 51
270.0
  0
LINE
  5
331
330
1F
100
AcDbEntity
  8
0
  6
SLD-Сплошная
 62
     7
370
    25
100
AcDbLine
 10
181.2218595807
 20
32.2992809928
 30
0.0
 11
198.5659989873
 21
32.2992809928
 31
0.0
  0
LINE
  5
332
330
1F
100
AcDbEntity
  8
0
  6
SLD-Сплошная
 62
     7
370
    25
100
AcDbLine
 10
181.2218595807
 20
74.4992809928
 30
0.0
 11
185.1654300805
 21
74.4992809928
 31
0.0
  0
ARC
  5
333
330
1F
100
AcDbEntity
  8
0
  6
SLD-Сплошная
 62
     7
370
    25
100
AcDbCircle
 10
198.5659989873
 20
-125.5007193498
 30
0.0
 40
200.0000003425625
100
AcDbArc
 50
87.3328701106
 51
89.8624009636
  0
ARC
  5
334
330
1F
100
AcDbEntity
  8
0
  6
SLD-Сплошная
 62
     7
370
    25
100
AcDbCircle
 10
198.5659989873
 20
232.2992813357
 30
0.0
 40
200.0000003428167
100
AcDbArc
 50
270.0
 51
272.6671298894
  0
LINE
  5
335
330
1F
100
AcDbEntity
  8
0
  6
SLD-Сплошная
 62
     7
370
    25
100
AcDbLine
 10
257.1218595807
 20
34.3992809928
 30
0.0
 11
254.9049896224
 21
32.5156707392
 31
0.0
  0
LINE
  5
336
330
1F
100
AcDbEntity
  8
0
  6
SLD-Сплошная
 62
     7
370
    25
100
AcDbLine
 10
257.1218595807
 20
72.3992809928
 30
0.0
 11
254.9049896224
 21
74.2828912465
 31
0.0
  0
LINE
  5
337
330
1F
100
AcDbEntity
  8
0
  6
SLD-Сплошная
 62
     7
370
    25
100
AcDbLine
 10
257.1218595807
 20
72.3992809928
 30
0.0
 11
257.1218595807
 21
34.3992809928
 31
0.0
  0
LINE
  5
338
330
1F
100
AcDbEntity
  8
0
  6
SLD-Сплошная
 62
     7
370
    25
100
AcDbLine
 10
240.6896145539
 20
34.0446733033
 30
0.0
 11
207.872676644
 21
32.5159339614
 31
0.0
  0
LINE
  5
339
330
1F
100
AcDbEntity
  8
0
  6
SLD-Сплошная
 62
     7
370
    25
100
AcDbLine
 10
240.6896145539
 20
72.7538886824
 30
0.0
 11
207.872676644
 21
74.2826280243
 31
0.0
  0
LINE
  5
33A
330
1F
100
AcDbEntity
  8
0
  6
SLD-Сплошная
 62
     7
370
    25
100
AcDbLine
 10
251.5218595807
 20
72.2492809928
 30
0.0
 11
245.9879216998
 21
72.5070731324
 31
0.0
  0
LINE
  5
33B
330
1F
100
AcDbEntity
  8
0
  6
SLD-Сплошная
 62
     7
370
    25
100
AcDbLine
 10
251.5218595807
 20
34.5492809928
 30
0.0
 11
245.9879216998
 21
34.2914888533
 31
0.0
  0
LINE
  5
33C
330
1F
100
AcDbEntity
  8
0
  6
SLD-Сплошная
 62
     7
370
    25
100
AcDbLine
 10
284.7218595807
 20
54.5866187575
 30
0.0
 11
284.7218595807
 21
52.586704384
 31
0.0
  0
LINE
  5
33D
330
1F
100
AcDbEntity
  8
0
  6
SLD-Сплошная
 62
     7
370
    25
100
AcDbLine
 10
284.7218595807
 20
52.586704384
 30
0.0
 11
271.7218595807
 21
52.586704384
 31
0.0
  0
LINE
  5
33E
330
1F
100
AcDbEntity
  8
0
  6
SLD-Сплошная
 62
     7
370
    25
100
AcDbLine
 10
271.7218595807
 20
52.586704384
 30
0.0
 11
271.7218595807
 21
43.4401752784
 31
0.0
  0
LINE
  5
33F
330
1F
100
AcDbEntity
  8
0
  6
SLD-Сплошная
 62
     7
370
    25
100
AcDbLine
 10
271.7218595807
 20
54.5866187575
 30
0.0
 11
271.7218595807
 21
63.7331478631
 31
0.0
  0
LINE
  5
340
330
1F
100
AcDbEntity
  8
0
  6
SLD-Сплошная
 62
     7
370
    25
100
AcDbLine
 10
271.7218595807
 20
54.5866187575
 30
0.0
 11
284.7218595807
 21
54.5866187575
 31
0.0
  0
LINE
  5
341
330
1F
100
AcDbEntity
  8
0
  6
SLD-Сплошная
 62
     7
370
    25
100
AcDbLine
 10
271.7218595807
 20
52.5790636615
 30
0.0
 11
284.7218595807
 21
52.5790636615
 31
0.0
  0
LINE
  5
342
330
1F
100
AcDbEntity
  8
0
  6
SLD-Сплошная
 62
     7
370
    25
100
AcDbLine
 10
284.7218595807
 20
52.5790636615
 30
0.0
 11
284.7218595807
 21
52.586704384
 31
0.0
  0
LINE
  5
343
330
1F
100
AcDbEntity
  8
0
  6
SLD-Сплошная
 62
     7
370
    25
100
AcDbLine
 10
284.7218595807
 20
37.1759468536
 30
0.0
 11
271.7218595807
 21
37.1759468536
 31
0.0
  0
LINE
  5
344
330
1F
100
AcDbEntity
  8
0
  6
SLD-Сплошная
 62
     7
370
    25
100
AcDbLine
 10
284.7218595807
 20
37.1759468536
 30
0.0
 11
284.7218595807
 21
52.5790636615
 31
0.0
  0
LINE
  5
345
330
1F
100
AcDbEntity
  8
0
  6
SLD-Сплошная
 62
     7
370
    25
100
AcDbLine
 10
271.7218595807
 20
69.8183822803
 30
0.0
 11
284.7218595807
 21
69.8183822803
 31
0.0
  0
LINE
  5
346
330
1F
100
AcDbEntity
  8
0
  6
SLD-Сплошная
 62
     7
370
    25
100
AcDbLine
 10
284.7218595807
 20
54.5789780349
 30
0.0
 11
284.7218595807
 21
69.8183822803
 31
0.0
  0
LINE
  5
347
330
1F
100
AcDbEntity
  8
0
  6
SLD-Сплошная
 62
     7
370
    25
100
AcDbLine
 10
284.7218595807
 20
35.4487154323
 30
0.0
 11
271.7218595807
 21
35.4487154323
 31
0.0
  0
LINE
  5
348
330
1F
100
AcDbEntity
  8
0
  6
SLD-Сплошная
 62
     7
370
    25
100
AcDbLine
 10
271.7218595807
 20
35.4487154323
 30
0.0
 11
271.7218595807
 21
30.8021506907
 31
0.0
  0
LINE
  5
349
330
1F
100
AcDbEntity
  8
0
  6
SLD-Сплошная
 62
     7
370
    25
100
AcDbLine
 10
271.7218595807
 20
30.8021506907
 30
0.0
 11
264.7218595807
 21
30.8021506907
 31
0.0
  0
LINE
  5
34A
330
1F
100
AcDbEntity
  8
0
  6
SLD-Сплошная
 62
     7
370
    25
100
AcDbLine
 10
284.7218595807
 20
36.4646999119
 30
0.0
 11
271.7218595807
 21
36.4646999119
 31
0.0
  0
LINE
  5
34B
330
1F
100
AcDbEntity
  8
0
  6
SLD-Сплошная
 62
     7
370
    25
100
AcDbLine
 10
284.7218595807
 20
36.4646999119
 30
0.0
 11
284.7218595807
 21
35.4487154323
 31
0.0
  0
LINE
  5
34C
330
1F
100
AcDbEntity
  8
0
  6
SLD-Сплошная
 62
     7
370
    25
100
AcDbLine
 10
271.7218595807
 20
36.4646999119
 30
0.0
 11
271.7218595807
 21
41.1112646534
 31
0.0
  0
LINE
  5
34D
330
1F
100
AcDbEntity
  8
0
  6
SLD-Сплошная
 62
     7
370
    25
100
AcDbLine
 10
284.7218595807
 20
70.5372699446
 30
0.0
 11
271.7218595807
 21
70.5372699446
 31
0.0
  0
LINE
  5
34E
330
1F
100
AcDbEntity
  8
0
  6
SLD-Сплошная
 62
     7
370
    25
100
AcDbLine
 10
271.7218595807
 20
71.5211998384
 30
0.0
 11
271.7218595807
 21
76.0211642025
 31
0.0
  0
LINE
  5
34F
330
1F
100
AcDbEntity
  8
0
  6
SLD-Сплошная
 62
     7
370
    25
100
AcDbLine
 10
284.7218595807
 20
71.5211998384
 30
0.0
 11
271.7218595807
 21
71.5211998384
 31
0.0
  0
LINE
  5
350
330
1F
100
AcDbEntity
  8
0
  6
SLD-Сплошная
 62
     7
370
    25
100
AcDbLine
 10
271.7218595807
 20
70.5372699446
 30
0.0
 11
271.7218595807
 21
66.0373055805
 31
0.0
  0
LINE
  5
351
330
1F
100
AcDbEntity
  8
0
  6
SLD-Сплошная
 62
     7
370
    25
100
AcDbLine
 10
284.7218595807
 20
71.5211998384
 30
0.0
 11
284.7218595807
 21
70.5372699446
 31
0.0
  0
LINE
  5
352
330
1F
100
AcDbEntity
  8
0
  6
SLD-Сплошная
 62
     7
370
    25
100
AcDbLine
 10
257.1218595807
 20
36.1492809928
 30
0.0
 11
261.7218595807
 21
36.1492809928
 31
0.0
  0
LINE
  5
353
330
1F
100
AcDbEntity
  8
0
  6
SLD-Сплошная
 62
     7
370
    25
100
AcDbLine
 10
257.1218595807
 20
70.6492809928
 30
0.0
 11
261.7218595807
 21
70.6492809928
 31
0.0
  0
LINE
  5
354
330
1F
100
AcDbEntity
  8
0
  6
SLD-Сплошная
 62
     7
370
    25
100
AcDbLine
 10
271.7218595807
 20
30.7492809928
 30
0.0
 11
271.7218595807
 21
30.8021506907
 31
0.0
  0
LINE
  5
355
330
1F
100
AcDbEntity
  8
0
  6
SLD-Сплошная
 62
     7
370
    25
100
AcDbLine
 10
264.7218595807
 20
33.889439723
 30
0.0
 11
264.7218595807
 21
30.8021506907
 31
0.0
  0
LINE
  5
356
330
1F
100
AcDbEntity
  8
0
  6
SLD-Сплошная
 62
     7
370
    25
100
AcDbLine
 10
261.7218595807
 20
33.889439723
 30
0.0
 11
261.7218595807
 21
30.7492809928
 31
0.0
  0
LINE
  5
357
330
1F
100
AcDbEntity
  8
0
  6
SLD-Сплошная
 62
     7
370
    25
100
AcDbLine
 10
284.7218595807
 20
36.4646999119
 30
0.0
 11
284.7218595807
 21
37.1759468536
 31
0.0
  0
LINE
  5
358
330
1F
100
AcDbEntity
  8
0
  6
SLD-Сплошная
 62
     7
370
    25
100
AcDbLine
 10
284.7218595807
 20
70.5372699446
 30
0.0
 11
284.7218595807
 21
69.8183822803
 31
0.0
  0
LINE
  5
359
330
1F
100
AcDbEntity
  8
0
  6
SLD-Сплошная
 62
     7
370
    25
100
AcDbLine
 10
284.7218595807
 20
33.9492809928
 30
0.0
 11
284.7218595807
 21
35.4487154323
 31
0.0
  0
LINE
  5
35A
330
1F
100
AcDbEntity
  8
0
  6
SLD-Сплошная
 62
     7
370
    25
100
AcDbLine
 10
284.7218595807
 20
71.5211998384
 30
0.0
 11
284.7218595807
 21
72.8492809928
 31
0.0
  0
ELLIPSE
  5
35B
330
1F
100
AcDbEntity
  8
0
  6
SLD-Сплошная
 62
     7
370
    25
100
AcDbEllipse
 10
146.9919702099
 20
42.2992921594
 30
0.0
 11
-5.316363171914418E-8
 21
0.2000270346005593
 31
0.0
210
0.0
220
0.0
230
1.0
 40
0.3446228382
 41
3.154188647913633
 42
4.348035036888247
  0
ELLIPSE
  5
35C
330
1F
100
AcDbEntity
  8
0
  6
SLD-Сплошная
 62
     7
370
    25
100
AcDbEllipse
 10
137.1040039398
 20
53.3453613668
 30
0.0
 11
0.0
 21
31.03286683940304
 31
0.0
210
0.0
220
0.0
230
1.0
 40
0.3435033803
 41
4.346002274514814
 42
5.086953816879933
  0
LINE
  5
35D
330
1F
100
AcDbEntity
  8
0
  6
SLD-Сплошная
 62
     7
370
    25
100
AcDbLine
 10
146.9928385309
 20
42.0992809928
 30
0.0
 11
150.1763218553
 21
42.0992809928
 31
0.0
  0
LINE
  5
35E
330
1F
100
AcDbEntity
  8
0
  6
SLD-Сплошная
 62
     7
370
    25
100
AcDbLine
 10
150.1763218553
 20
64.6992809928
 30
0.0
 11
147.0248152934
 21
64.6992809928
 31
0.0
  0
LINE
  5
35F
330
1F
100
AcDbEntity
  8
0
  6
SLD-Сплошная
 62
     7
370
    25
100
AcDbLine
 10
146.2856429496
 20
89.1953613669
 30
0.0
 11
146.2856429496
 21
17.4953613669
 31
0.0
  0
LINE
  5
360
330
1F
100
AcDbEntity
  8
0
  6
SLD-Сплошная
 62
     7
370
    25
100
AcDbLine
 10
140.7856429496
 20
17.5247551197
 30
0.0
 11
142.2856429456
 21
17.5247551197
 31
0.0
  0
LINE
  5
361
330
1F
100
AcDbEntity
  8
0
  6
SLD-Сплошная
 62
     7
370
    25
100
AcDbLine
 10
140.7856429496
 20
23.7656024229
 30
0.0
 11
140.7856429496
 21
17.5247551197
 31
0.0
  0
LINE
  5
362
330
1F
100
AcDbEntity
  8
0
  6
SLD-Сплошная
 62
     7
370
    25
100
AcDbLine
 10
140.7856429496
 20
23.7656024229
 30
0.0
 11
130.4993737976
 21
23.7656024229
 31
0.0
  0
LINE
  5
363
330
1F
100
AcDbEntity
  8
0
  6
SLD-Сплошная
 62
     7
370
    25
100
AcDbLine
 10
130.4993737976
 20
23.7656024229
 30
0.0
 11
130.4993737976
 21
24.9411729275
 31
0.0
  0
LINE
  5
364
330
1F
100
AcDbEntity
  8
0
  6
SLD-Сплошная
 62
     7
370
    25
100
AcDbLine
 10
140.7856429496
 20
24.9411729275
 30
0.0
 11
130.4993737976
 21
24.9411729275
 31
0.0
  0
LINE
  5
365
330
1F
100
AcDbEntity
  8
0
  6
SLD-Сплошная
 62
     7
370
    25
100
AcDbLine
 10
140.7856429496
 20
41.3203563012
 30
0.0
 11
140.7856429496
 21
24.9411729275
 31
0.0
  0
LINE
  5
366
330
1F
100
AcDbEntity
  8
0
  6
SLD-Сплошная
 62
     7
370
    25
100
AcDbLine
 10
140.7856429496
 20
41.3203563012
 30
0.0
 11
130.4993737976
 21
41.3203563012
 31
0.0
  0
LINE
  5
367
330
1F
100
AcDbEntity
  8
0
  6
SLD-Сплошная
 62
     7
370
    25
100
AcDbLine
 10
130.4993737976
 20
41.3203563012
 30
0.0
 11
130.4993737976
 21
43.2224693338
 31
0.0
  0
LINE
  5
368
330
1F
100
AcDbEntity
  8
0
  6
SLD-Сплошная
 62
     7
370
    25
100
AcDbLine
 10
140.7856429496
 20
43.2224693338
 30
0.0
 11
130.4993737976
 21
43.2224693338
 31
0.0
  0
LINE
  5
369
330
1F
100
AcDbEntity
  8
0
  6
SLD-Сплошная
 62
     7
370
    25
100
AcDbLine
 10
140.7856429496
 20
63.4682533996
 30
0.0
 11
140.7856429496
 21
43.2224693338
 31
0.0
  0
LINE
  5
36A
330
1F
100
AcDbEntity
  8
0
  6
SLD-Сплошная
 62
     7
370
    25
100
AcDbLine
 10
140.7856429496
 20
63.4682533996
 30
0.0
 11
130.4993737976
 21
63.4682533996
 31
0.0
  0
LINE
  5
36B
330
1F
100
AcDbEntity
  8
0
  6
SLD-Сплошная
 62
     7
370
    25
100
AcDbLine
 10
130.4993737976
 20
63.4682533996
 30
0.0
 11
130.4993737976
 21
65.3703664322
 31
0.0
  0
LINE
  5
36C
330
1F
100
AcDbEntity
  8
0
  6
SLD-Сплошная
 62
     7
370
    25
100
AcDbLine
 10
140.7856429496
 20
65.3703664322
 30
0.0
 11
130.4993737976
 21
65.3703664322
 31
0.0
  0
LINE
  5
36D
330
1F
100
AcDbEntity
  8
0
  6
SLD-Сплошная
 62
     7
370
    25
100
AcDbLine
 10
140.7856429496
 20
81.749549806
 30
0.0
 11
140.7856429496
 21
65.3703664322
 31
0.0
  0
LINE
  5
36E
330
1F
100
AcDbEntity
  8
0
  6
SLD-Сплошная
 62
     7
370
    25
100
AcDbLine
 10
140.7856429496
 20
81.749549806
 30
0.0
 11
130.4993737976
 21
81.749549806
 31
0.0
  0
LINE
  5
36F
330
1F
100
AcDbEntity
  8
0
  6
SLD-Сплошная
 62
     7
370
    25
100
AcDbLine
 10
130.4993737976
 20
81.749549806
 30
0.0
 11
130.4993737976
 21
82.9251203106
 31
0.0
  0
LINE
  5
370
330
1F
100
AcDbEntity
  8
0
  6
SLD-Сплошная
 62
     7
370
    25
100
AcDbLine
 10
140.7856429496
 20
82.9251203106
 30
0.0
 11
130.4993737976
 21
82.9251203106
 31
0.0
  0
LINE
  5
371
330
1F
100
AcDbEntity
  8
0
  6
SLD-Сплошная
 62
     7
370
    25
100
AcDbLine
 10
140.7856429496
 20
89.165967614
 30
0.0
 11
140.7856429496
 21
82.9251203106
 31
0.0
  0
LINE
  5
372
330
1F
100
AcDbEntity
  8
0
  6
SLD-Сплошная
 62
     7
370
    25
100
AcDbLine
 10
142.2856429456
 20
89.165967614
 30
0.0
 11
140.7856429496
 21
89.165967614
 31
0.0
  0
LINE
  5
373
330
1F
100
AcDbEntity
  8
0
  6
SLD-Сплошная
 62
     7
370
    25
100
AcDbLine
 10
140.2856429471
 20
62.9736247489
 30
0.0
 11
140.7856429496
 21
63.4682533996
 31
0.0
  0
LINE
  5
374
330
1F
100
AcDbEntity
  8
0
  6
SLD-Сплошная
 62
     7
370
    25
100
AcDbLine
 10
140.7856429496
 20
43.2224693338
 30
0.0
 11
140.2856429471
 21
43.7170979845
 31
0.0
  0
LINE
  5
375
330
1F
100
AcDbEntity
  8
0
  6
SLD-Сплошная
 62
     7
370
    25
100
AcDbLine
 10
140.2856429471
 20
43.7170979845
 30
0.0
 11
140.2856429471
 21
62.9736247489
 31
0.0
  0
SPLINE
  5
376
330
1F
100
AcDbEntity
  8
0
  6
SLD-Сплошная
 62
     7
370
    25
100
AcDbSpline
210
0.0
220
0.0
230
1.0
 70
     8
 71
     3
 72
    10
 73
     6
 74
     0
 42
0.00000001
 43
0.00000001
 40
0.0
 40
0.0
 40
0.0
 40
0.0
 40
0.5
 40
0.5
 40
1.0
 40
1.0
 40
1.0
 40
1.0
 10
130.3249551323402
 20
86.47383063306823
 30
0.0
 10
130.3163207740719
 20
86.33590491891444
 30
0.0
 10
130.3079112873297
 20
86.19976565258358
 30
0.0
 10
130.2913269666974
 20
85.92886680038397
 30
0.0
 10
130.2831704053817
 20
85.7943726863215
 30
0.0
 10
130.2750957154648
 20
85.66038822315308
 30
0.0
  0
SPLINE
  5
377
330
1F
100
AcDbEntity
  8
0
  6
SLD-Сплошная
 62
     7
370
    25
100
AcDbSpline
210
0.0
220
0.0
230
1.0
 70
     8
 71
     3
 72
    14
 73
    10
 74
     0
 42
0.00000001
 43
0.00000001
 40
0.0
 40
0.0
 40
0.0
 40
0.0
 40
0.0000381661268658
 40
0.0000381661268658
 40
0.0000381661268658
 40
0.0000763301799645
 40
0.0000763301799645
 40
0.0000763301799645
 40
0.0000874201025539
 40
0.0000874201025539
 40
0.0000874201025539
 40
0.0000874201025539
 10
130.3249551323401
 20
86.4738306330687
 30
0.0
 10
130.3257500002006
 20
86.48652760830548
 30
0.0
 10
130.3265447237219
 20
86.49922432188598
 30
0.0
 10
130.3273391081594
 20
86.51191573532734
 30
0.0
 10
130.328133466493
 20
86.52460673172129
 30
0.0
 10
130.3289275797828
 20
86.53729393177632
 30
0.0
 10
130.3297214845383
 20
86.54997571105189
 30
0.0
 10
130.3299521693985
 20
86.55366065494333
 30
0.0
 10
130.3301828410981
 20
86.55734521028667
 30
0.0
 10
130.3304135038406
 20
86.56102938526968
 30
0.0
  0
SPLINE
  5
378
330
1F
100
AcDbEntity
  8
0
  6
SLD-Сплошная
 62
     7
370
    25
100
AcDbSpline
210
0.0
220
0.0
230
1.0
 70
     8
 71
     3
 72
    10
 73
     6
 74
     0
 42
0.00000001
 43
0.00000001
 40
0.0
 40
0.0
 40
0.0
 40
0.0
 40
0.5
 40
0.5
 40
1.0
 40
1.0
 40
1.0
 40
1.0
 10
130.3304134954787
 20
86.56102899421624
 30
0.0
 10
130.3308196687302
 20
86.56751633310525
 30
0.0
 10
130.3312236991756
 20
86.57397501109504
 30
0.0
 10
130.3320278531166
 20
86.58683839880746
 30
0.0
 10
130.332427899712
 20
86.59324251151907
 30
0.0
 10
130.3328259417156
 20
86.5996193934381
 30
0.0
  0
LWPOLYLINE
  5
379
330
1F
100
AcDbEntity
  8
0
  6
SLD-Сплошная
 62
     7
370
    25
100
AcDbPolyline
 90
        9
 70
   128
 43
0.0
 10
130.3328259417
 20
86.5996193934
 10
130.3402944547
 20
86.7190491288
 10
130.3477903911
 20
86.838477175
 10
130.3553137506
 20
86.9579035257
 10
130.3628645327
 20
87.0773281749
 10
130.3704427371
 20
87.1967511163
 10
130.3780483633
 20
87.3161723437
 10
130.3856814111
 20
87.435591851
 10
130.3933418799
 20
87.555009632
  0
LINE
  5
37A
330
1F
100
AcDbEntity
  8
0
  6
SLD-Сплошная
 62
     7
370
    25
100
AcDbLine
 10
130.3933418799
 20
87.555009632
 30
0.0
 11
130.3933418799
 21
81.6301656912
 31
0.0
  0
ARC
  5
37B
330
1F
100
AcDbEntity
  8
0
  6
SLD-Сплошная
 62
     7
370
    25
100
AcDbCircle
 10
477.4124138915
 20
53.8677854284
 30
0.0
 40
348.1278301107504
100
AcDbArc
 50
175.2120981864
 51
175.4259385519
  0
ARC
  5
37C
330
1F
100
AcDbEntity
  8
0
  6
SLD-Сплошная
 62
     7
370
    25
100
AcDbCircle
 10
477.4124144143
 20
52.6922148806
 30
0.0
 40
348.1278306353773
100
AcDbArc
 50
175.2120981865
 51
175.4259385516
  0
LINE
  5
37D
330
1F
100
AcDbEntity
  8
0
  6
SLD-Сплошная
 62
     7
370
    25
100
AcDbLine
 10
130.3933418799
 20
80.4545951868
 30
0.0
 11
130.3933418799
 21
79.5094616097
 31
0.0
  0
LINE
  5
37E
330
1F
100
AcDbEntity
  8
0
  6
SLD-Сплошная
 62
     7
370
    25
100
AcDbLine
 10
130.3933418799
 20
65.8332175931
 30
0.0
 11
130.3933418799
 21
79.5094616097
 31
0.0
  0
LINE
  5
37F
330
1F
100
AcDbEntity
  8
0
  6
SLD-Сплошная
 62
     7
370
    25
100
AcDbLine
 10
130.3933418799
 20
64.8757377814
 30
0.0
 11
130.3933418799
 21
65.8332175931
 31
0.0
  0
ARC
  5
380
330
1F
100
AcDbEntity
  8
0
  6
SLD-Сплошная
 62
     7
370
    25
100
AcDbCircle
 10
183.0414089749
 20
53.8484239074
 30
0.0
 40
53.79052537498213
100
AcDbArc
 50
167.63138962
 51
168.1702221647
  0
ARC
  5
381
330
1F
100
AcDbEntity
  8
0
  6
SLD-Сплошная
 62
     7
370
    25
100
AcDbCircle
 10
183.0414092429
 20
51.9463108168
 30
0.0
 40
53.79052564919046
100
AcDbArc
 50
167.6313896208
 51
168.1702221626
  0
LINE
  5
382
330
1F
100
AcDbEntity
  8
0
  6
SLD-Сплошная
 62
     7
370
    25
100
AcDbLine
 10
130.3933418799
 20
62.973624749
 30
0.0
 11
130.3933418799
 21
61.5212808766
 31
0.0
  0
LINE
  5
383
330
1F
100
AcDbEntity
  8
0
  6
SLD-Сплошная
 62
     7
370
    25
100
AcDbLine
 10
130.3933418799
 20
43.7170979845
 30
0.0
 11
130.3933418799
 21
61.5212808766
 31
0.0
  0
ARC
  5
384
330
1F
100
AcDbEntity
  8
0
  6
SLD-Сплошная
 62
     7
370
    25
100
AcDbCircle
 10
183.0414080688
 20
54.7444116625
 30
0.0
 40
53.7905244478866
100
AcDbArc
 50
191.8297778287
 51
192.3686103827
  0
ARC
  5
385
330
1F
100
AcDbEntity
  8
0
  6
SLD-Сплошная
 62
     7
370
    25
100
AcDbCircle
 10
183.0414094812
 20
52.8422989355
 30
0.0
 40
53.79052589298824
100
AcDbArc
 50
191.8297778391
 51
192.3686103784
  0
LINE
  5
386
330
1F
100
AcDbEntity
  8
0
  6
SLD-Сплошная
 62
     7
370
    25
100
AcDbLine
 10
130.3933418799
 20
41.8149849518
 30
0.0
 11
130.3933418799
 21
40.4101767803
 31
0.0
  0
LINE
  5
387
330
1F
100
AcDbEntity
  8
0
  6
SLD-Сплошная
 62
     7
370
    25
100
AcDbLine
 10
130.3933418799
 20
26.2361275471
 30
0.0
 11
130.3933418799
 21
40.4101767803
 31
0.0
  0
ARC
  5
388
330
1F
100
AcDbEntity
  8
0
  6
SLD-Сплошная
 62
     7
370
    25
100
AcDbCircle
 10
477.4124092849
 20
53.9985074289
 30
0.0
 40
348.1278254884875
100
AcDbArc
 50
184.5740614461
 51
184.7879018144
  0
ARC
  5
389
330
1F
100
AcDbEntity
  8
0
  6
SLD-Сплошная
 62
     7
370
    25
100
AcDbCircle
 10
477.4124185104
 20
52.8229376868
 30
0.0
 40
348.1278347454277
100
AcDbArc
 50
184.5740614501
 51
184.7879018127
  0
LINE
  5
38A
330
1F
100
AcDbEntity
  8
0
  6
SLD-Сплошная
 62
     7
370
    25
100
AcDbLine
 10
130.3933418799
 20
19.1357131016
 30
0.0
 11
130.3933418799
 21
25.0605570424
 31
0.0
  0
SPLINE
  5
38B
330
1F
100
AcDbEntity
  8
0
  6
SLD-Сплошная
 62
     7
370
    25
100
AcDbSpline
210
0.0
220
0.0
230
1.0
 70
     8
 71
     3
 72
     8
 73
     4
 74
     0
 42
0.00000001
 43
0.00000001
 40
0.0
 40
0.0
 40
0.0
 40
0.0
 40
1.0
 40
1.0
 40
1.0
 40
1.0
 10
130.3933418799281
 20
19.13571310163084
 30
0.0
 10
130.3731895778226
 20
19.44930048154139
 30
0.0
 10
130.3533209078538
 20
19.76290577997133
 30
0.0
 10
130.3337359033603
 20
20.07652846954834
 30
0.0
  0
SPLINE
  5
38C
330
1F
100
AcDbEntity
  8
0
  6
SLD-Сплошная
 62
     7
370
    25
100
AcDbSpline
210
0.0
220
0.0
230
1.0
 70
     8
 71
     3
 72
     9
 73
     5
 74
     0
 42
0.00000001
 43
0.00000001
 40
0.0
 40
0.0
 40
0.0
 40
0.0
 40
0.5
 40
1.0
 40
1.0
 40
1.0
 40
1.0
 10
130.3337066981093
 20
20.07765665405949
 30
0.0
 10
130.3322363370255
 20
20.10092253873824
 30
0.0
 10
130.329314221583
 20
20.14730653972655
 30
0.0
 10
130.3264277686875
 20
20.19340800697913
 30
0.0
 10
130.3249937340979
 20
20.21638527300486
 30
0.0
  0
SPLINE
  5
38D
330
1F
100
AcDbEntity
  8
0
  6
SLD-Сплошная
 62
     7
370
    25
100
AcDbSpline
210
0.0
220
0.0
230
1.0
 70
     8
 71
     3
 72
    10
 73
     6
 74
     0
 42
0.00000001
 43
0.00000001
 40
0.0
 40
0.0
 40
0.0
 40
0.0
 40
0.5
 40
0.5
 40
1.0
 40
1.0
 40
1.0
 40
1.0
 10
130.2750957154731
 20
21.03033451047089
 30
0.0
 10
130.2831604999746
 20
20.89651440892274
 30
0.0
 10
130.2912685230445
 20
20.76281949836809
 30
0.0
 10
130.3077949825714
 20
20.49284806168419
 30
0.0
 10
130.3161718814574
 20
20.35722210055953
 30
0.0
 10
130.3247766474297
 20
20.21974349408384
 30
0.0
  0
LWPOLYLINE
  5
38E
330
1F
100
AcDbEntity
  8
0
  6
SLD-Сплошная
 62
     7
370
    25
100
AcDbPolyline
 90
        9
 70
   128
 43
0.0
 10
129.9842968666
 20
26.1807682532
 10
130.0178869401
 20
25.5368126213
 10
130.0522656282
 20
24.892898332
 10
130.0874328799
 20
24.2490263447
 10
130.1233886426
 20
23.6051976187
 10
130.1601328629
 20
22.9614131131
 10
130.1976654859
 20
22.3176737872
 10
130.2359864558
 20
21.6739806
 10
130.2750957155
 20
21.0303345104
  0
SPLINE
  5
38F
330
1F
100
AcDbEntity
  8
0
  6
SLD-Сплошная
 62
     7
370
    25
100
AcDbSpline
210
0.0
220
0.0
230
1.0
 70
     8
 71
     3
 72
     8
 73
     4
 74
     0
 42
0.00000001
 43
0.00000001
 40
0.0
 40
0.0
 40
0.0
 40
0.0
 40
1.0
 40
1.0
 40
1.0
 40
1.0
 10
129.9843069256233
 20
26.18006969854508
 30
0.0
 10
129.982830325486
 20
26.2105050911773
 30
0.0
 10
129.9812723852301
 20
26.24093648526692
 30
0.0
 10
129.9796330114191
 20
26.27136348860638
 30
0.0
  0
SPLINE
  5
390
330
1F
100
AcDbEntity
  8
0
  6
SLD-Сплошная
 62
     7
370
    25
100
AcDbSpline
210
0.0
220
0.0
230
1.0
 70
     8
 71
     3
 72
     8
 73
     4
 74
     0
 42
0.00000001
 43
0.00000001
 40
0.0
 40
0.0
 40
0.0
 40
0.0
 40
1.0
 40
1.0
 40
1.0
 40
1.0
 10
129.9491339635477
 20
26.87133567374162
 30
0.0
 10
129.9591853120983
 20
26.67134842508751
 30
0.0
 10
129.969351470361
 20
26.47135462001772
 30
0.0
 10
129.9796324596932
 20
26.27135443113565
 30
0.0
  0
SPLINE
  5
391
330
1F
100
AcDbEntity
  8
0
  6
SLD-Сплошная
 62
     7
370
    25
100
AcDbSpline
210
0.0
220
0.0
230
1.0
 70
     8
 71
     3
 72
    11
 73
     7
 74
     0
 42
0.00000001
 43
0.00000001
 40
0.0
 40
0.0
 40
0.0
 40
0.0
 40
0.2459795723706736
 40
0.4944783736831513
 40
0.7458894900879036
 40
1.0
 40
1.0
 40
1.0
 40
1.0
 10
129.7616509645214
 20
30.88658483198491
 30
0.0
 10
129.7623148207086
 20
30.87154747786132
 30
0.0
 10
129.7636493320448
 20
30.84131876276979
 30
0.0
 10
129.7732669935694
 20
30.62424778127182
 30
0.0
 10
129.7866198485459
 20
30.32385378923425
 30
0.0
 10
129.7978191745502
 20
30.07216627721117
 30
0.0
 10
129.8034487387339
 20
29.94565053843919
 30
0.0
  0
SPLINE
  5
392
330
1F
100
AcDbEntity
  8
0
  6
SLD-Сплошная
 62
     7
370
    25
100
AcDbSpline
210
0.0
220
0.0
230
1.0
 70
     8
 71
     3
 72
    12
 73
     8
 74
     0
 42
0.00000001
 43
0.00000001
 40
0.0
 40
0.0
 40
0.0
 40
0.0
 40
0.2532108727955653
 40
0.5040860679689013
 40
0.7522419801250467
 40
0.9990069885937103
 40
1.0
 40
1.0
 40
1.0
 40
1.0
 10
129.8034523028318
 20
76.74515096154819
 30
0.0
 10
129.7978602242686
 20
76.61948155298833
 30
0.0
 10
129.7867276498117
 20
76.36930194053521
 30
0.0
 10
129.7731123591835
 20
76.0629756436817
 30
0.0
 10
129.7645026510818
 20
75.86870997873105
 30
0.0
 10
129.7605553657653
 20
75.77936434971508
 30
0.0
 10
129.7616474108404
 20
75.80405776386092
 30
0.0
 10
129.761651787745
 20
75.80415673479199
 30
0.0
  0
SPLINE
  5
393
330
1F
100
AcDbEntity
  8
0
  6
SLD-Сплошная
 62
     7
370
    25
100
AcDbSpline
210
0.0
220
0.0
230
1.0
 70
     8
 71
     3
 72
     8
 73
     4
 74
     0
 42
0.00000001
 43
0.00000001
 40
0.0
 40
0.0
 40
0.0
 40
0.0
 40
1.0
 40
1.0
 40
1.0
 40
1.0
 10
129.9492297730167
 20
79.82177117236175
 30
0.0
 10
129.9507455172842
 20
79.85081173158811
 30
0.0
 10
129.9522142595694
 20
79.87985432215869
 30
0.0
 10
129.9536359499315
 20
79.90889910578156
 30
0.0
  0
SPLINE
  5
394
330
1F
100
AcDbEntity
  8
0
  6
SLD-Сплошная
 62
     7
370
    25
100
AcDbSpline
210
0.0
220
0.0
230
1.0
 70
     8
 71
     3
 72
     8
 73
     4
 74
     0
 42
0.00000001
 43
0.00000001
 40
0.0
 40
0.0
 40
0.0
 40
0.0
 40
1.0
 40
1.0
 40
1.0
 40
1.0
 10
129.9842967098507
 20
80.50995176682449
 30
0.0
 10
129.9740340816751
 20
80.31097586697692
 30
0.0
 10
129.9638837758824
 20
80.11198158452675
 30
0.0
 10
129.9538458633143
 20
79.9129690964637
 30
0.0
  0
LWPOLYLINE
  5
395
330
1F
100
AcDbEntity
  8
0
  6
SLD-Сплошная
 62
     7
370
    25
100
AcDbPolyline
 90
        9
 70
   128
 43
0.0
 10
130.2750957155
 20
85.6603882233
 10
130.2359864318
 20
85.0167417343
 10
130.1976654388
 20
84.3730481476
 10
130.1601327937
 20
83.7293084221
 10
130.1233885524
 20
83.0855235169
 10
130.0874327695
 20
82.4416943912
 10
130.0522654987
 20
81.7978220042
 10
130.0178867924
 20
81.1539073152
 10
129.9842967018
 20
80.5099512834
  0
LINE
  5
396
330
1F
100
AcDbEntity
  8
0
  6
SLD-Сплошная
 62
     7
370
    25
100
AcDbLine
 10
140.2856429471
 20
62.9736247489
 30
0.0
 11
130.3933418799
 21
62.973624749
 31
0.0
  0
LINE
  5
397
330
1F
100
AcDbEntity
  8
0
  6
SLD-Сплошная
 62
     7
370
    25
100
AcDbLine
 10
140.2856429471
 20
43.7170979845
 30
0.0
 11
130.3933418799
 21
43.7170979845
 31
0.0
  0
LINE
  5
398
330
1F
100
AcDbEntity
  8
0
  6
SLD-Сплошная
 62
     7
370
    25
100
AcDbLine
 10
140.2856429471
 20
80.4545951866
 30
0.0
 11
140.7856429496
 21
81.749549806
 31
0.0
  0
LINE
  5
399
330
1F
100
AcDbEntity
  8
0
  6
SLD-Сплошная
 62
     7
370
    25
100
AcDbLine
 10
140.2856429496
 20
65.3703664322
 30
0.0
 11
140.2856429471
 21
80.4545951866
 31
0.0
  0
LINE
  5
39A
330
1F
100
AcDbEntity
  8
0
  6
SLD-Сплошная
 62
     7
370
    25
100
AcDbLine
 10
140.7856429496
 20
24.9411729275
 30
0.0
 11
140.2856429471
 21
26.2361275469
 31
0.0
  0
LINE
  5
39B
330
1F
100
AcDbEntity
  8
0
  6
SLD-Сплошная
 62
     7
370
    25
100
AcDbLine
 10
140.2856429471
 20
26.2361275469
 30
0.0
 11
140.2856429496
 21
41.3203563012
 31
0.0
  0
LINE
  5
39C
330
1F
100
AcDbEntity
  8
0
  6
SLD-Сплошная
 62
     7
370
    25
100
AcDbLine
 10
140.2856429471
 20
26.2361275469
 30
0.0
 11
130.3933418799
 21
26.2361275471
 31
0.0
  0
LINE
  5
39D
330
1F
100
AcDbEntity
  8
0
  6
SLD-Сплошная
 62
     7
370
    25
100
AcDbLine
 10
140.2856429471
 20
80.4545951866
 30
0.0
 11
130.3933418799
 21
80.4545951868
 31
0.0
  0
LINE
  5
39E
330
1F
100
AcDbEntity
  8
0
  6
SLD-Сплошная
 62
     7
370
    25
100
AcDbLine
 10
146.2856429496
 20
64.6992809928
 30
0.0
 11
147.0248152934
 21
64.6992809928
 31
0.0
  0
ELLIPSE
  5
39F
330
1F
100
AcDbEntity
  8
0
  6
SLD-Сплошная
 62
     7
370
    25
100
AcDbEllipse
 10
146.9919702099
 20
42.2992921594
 30
0.0
 11
-5.316363171914418E-8
 21
0.2000270346005593
 31
0.0
210
0.0
220
0.0
230
1.0
 40
0.3446228382
 41
3.141710641609134
 42
3.154188647913633
  0
LINE
  5
3A0
330
1F
100
AcDbEntity
  8
0
  6
SLD-Сплошная
 62
     7
370
    25
100
AcDbLine
 10
146.9919783962
 20
42.0992730595
 30
0.0
 11
146.2856429496
 21
42.0992737376
 31
0.0
  0
LINE
  5
3A1
330
1F
100
AcDbEntity
  8
0
  6
SLD-Сплошная
 62
     7
370
    25
100
AcDbLine
 10
129.7218595813
 20
53.3453613668
 30
0.0
 11
129.7218595813
 21
75.1453613668
 31
0.0
  0
LINE
  5
3A2
330
1F
100
AcDbEntity
  8
0
  6
SLD-Сплошная
 62
     7
370
    25
100
AcDbLine
 10
127.7218595814
 20
75.1453613668
 30
0.0
 11
127.7218595813
 21
53.3453613668
 31
0.0
  0
LINE
  5
3A3
330
1F
100
AcDbEntity
  8
0
  6
SLD-Сплошная
 62
     7
370
    25
100
AcDbLine
 10
127.7218595813
 20
53.3453613668
 30
0.0
 11
127.7218595813
 21
31.5453613668
 31
0.0
  0
LINE
  5
3A4
330
1F
100
AcDbEntity
  8
0
  6
SLD-Сплошная
 62
     7
370
    25
100
AcDbLine
 10
129.7218595813
 20
31.5453613668
 30
0.0
 11
129.7218595813
 21
53.3453613668
 31
0.0
  0
LWPOLYLINE
  5
3A5
330
1F
100
AcDbEntity
  8
0
  6
SLD-Сплошная
 62
     7
370
    25
100
AcDbPolyline
 90
        9
 70
   128
 43
0.0
 10
140.285642947
 20
87.555009632
 10
140.3481077673
 20
87.7563901133
 10
140.4105826665
 20
87.9577675206
 10
140.4730676445
 20
88.1591418533
 10
140.5355627011
 20
88.360513111
 10
140.5980678361
 20
88.5618812932
 10
140.6605830495
 20
88.7632463994
 10
140.723108341
 20
88.964608429
 10
140.7856429496
 20
89.165967614
  0
LINE
  5
3A6
330
1F
100
AcDbEntity
  8
0
  6
SLD-Сплошная
 62
     7
370
    25
100
AcDbLine
 10
140.2856429496
 20
82.9251203106
 30
0.0
 11
140.285642947
 21
87.555009632
 31
0.0
  0
LWPOLYLINE
  5
3A7
330
1F
100
AcDbEntity
  8
0
  6
SLD-Сплошная
 62
     7
370
    25
100
AcDbPolyline
 90
        9
 70
   128
 43
0.0
 10
140.7856429496
 20
17.5247551197
 10
140.7231075801
 20
17.7261140724
 10
140.6605822885
 20
17.927476102
 10
140.5980670751
 20
18.1288412082
 10
140.53556194
 20
18.3302093904
 10
140.4730668834
 20
18.5315806482
 10
140.4105819055
 20
18.732954981
 10
140.3481070063
 20
18.9343323883
 10
140.285642947
 20
19.1357131017
  0
LINE
  5
3A8
330
1F
100
AcDbEntity
  8
0
  6
SLD-Сплошная
 62
     7
370
    25
100
AcDbLine
 10
140.285642947
 20
19.1357131017
 30
0.0
 11
140.2856429496
 21
23.7656024229
 31
0.0
  0
LINE
  5
3A9
330
1F
100
AcDbEntity
  8
0
  6
SLD-Сплошная
 62
     7
370
    25
100
AcDbLine
 10
140.285642947
 20
87.555009632
 30
0.0
 11
130.3933418799
 21
87.555009632
 31
0.0
  0
LINE
  5
3AA
330
1F
100
AcDbEntity
  8
0
  6
SLD-Сплошная
 62
     7
370
    25
100
AcDbLine
 10
140.285642947
 20
19.1357131017
 30
0.0
 11
130.3933418799
 21
19.1357131016
 31
0.0
  0
SPLINE
  5
3AB
330
1F
100
AcDbEntity
  8
0
  6
SLD-Сплошная
 62
     7
370
    25
100
AcDbSpline
210
0.0
220
0.0
230
1.0
 70
     8
 71
     3
 72
    14
 73
    10
 74
     0
 42
0.00000001
 43
0.00000001
 40
0.0
 40
0.0
 40
0.0
 40
0.0
 40
0.25
 40
0.25
 40
0.5
 40
0.5
 40
0.75
 40
0.75
 40
1.0
 40
1.0
 40
1.0
 40
1.0
 10
128.3839212292451
 20
90.8516129135863
 30
0.0
 10
128.08753060792
 20
90.84830139335648
 30
0.0
 10
127.8555338803356
 20
90.71694934873939
 30
0.0
 10
127.5205982517019
 20
90.3525574675342
 30
0.0
 10
127.4176593506534
 20
90.11951763095
 30
0.0
 10
127.3411094141581
 20
89.70614342262128
 30
0.0
 10
127.3404080257528
 20
89.5244373328736
 30
0.0
 10
127.3723283290334
 20
89.1924029172293
 30
0.0
 10
127.4049500207191
 20
89.04207459133198
 30
0.0
 10
127.4333212126234
 20
88.89814301485659
 30
0.0
  0
SPLINE
  5
3AC
330
1F
100
AcDbEntity
  8
0
  6
SLD-Сплошная
 62
     7
370
    25
100
AcDbSpline
210
0.0
220
0.0
230
1.0
 70
    24
 71
     3
 72
    14
 73
    10
 74
     0
 42
0.00000001
 43
0.00000001
 40
0.0
 40
0.0
 40
0.0
 40
0.0
 40
0.102931214190872
 40
0.2415676990257122
 40
0.3815329737335502
 40
0.5167218152520298
 40
0.6493392175973922
 40
0.7715884769907002
 40
1.0
 40
1.0
 40
1.0
 40
1.0
 10
127.276306309791
 20
89.88118039208908
 30
0.0
 10
127.2770155176384
 20
89.87647803570961
 30
0.0
 10
127.2786799467348
 20
89.86544214713571
 30
0.0
 10
127.2856555449297
 20
89.81919089823518
 30
0.0
 10
127.3021895499841
 20
89.709563256027
 30
0.0
 10
127.3220164887557
 20
89.57810203156349
 30
0.0
 10
127.3468406920944
 20
89.41350677029641
 30
0.0
 10
127.3795307982635
 20
89.19675715330615
 30
0.0
 10
127.4059170240298
 20
89.02180500420332
 30
0.0
 10
127.423104340993
 20
88.9078456199901
 30
0.0
  0
SPLINE
  5
3AD
330
1F
100
AcDbEntity
  8
0
  6
SLD-Сплошная
 62
     7
370
    25
100
AcDbSpline
210
0.0
220
0.0
230
1.0
 70
     8
 71
     3
 72
    14
 73
    10
 74
     0
 42
0.00000001
 43
0.00000001
 40
0.0
 40
0.0
 40
0.0
 40
0.0
 40
0.25
 40
0.25
 40
0.5
 40
0.5
 40
0.75
 40
0.75
 40
1.0
 40
1.0
 40
1.0
 40
1.0
 10
127.4333212126267
 20
17.79257971886574
 30
0.0
 10
127.4047640000134
 20
17.64770442933864
 30
0.0
 10
127.3720236369945
 20
17.49761551010414
 30
0.0
 10
127.3401249484444
 20
17.16603755892084
 30
0.0
 10
127.3409666229203
 20
16.98454852696534
 30
0.0
 10
127.4181803477048
 20
16.56919749702234
 30
0.0
 10
127.5214924361384
 20
16.33640776241914
 30
0.0
 10
127.8565880293524
 20
15.97301498733974
 30
0.0
 10
128.0883715341417
 20
15.84241194685944
 30
0.0
 10
128.3839212292431
 20
15.83910982013614
 30
0.0
  0
SPLINE
  5
3AE
330
1F
100
AcDbEntity
  8
0
  6
SLD-Сплошная
 62
     7
370
    25
100
AcDbSpline
210
0.0
220
0.0
230
1.0
 70
    24
 71
     3
 72
    13
 73
     9
 74
     0
 42
0.00000001
 43
0.00000001
 40
0.0
 40
0.0
 40
0.0
 40
0.0
 40
0.244172200990564
 40
0.3521200212430868
 40
0.5032858188004176
 40
0.6424920790804359
 40
0.7755943570699176
 40
1.0
 40
1.0
 40
1.0
 40
1.0
 10
127.4231043409936
 20
17.78287711373584
 30
0.0
 10
127.404785627129
 20
17.66141607615525
 30
0.0
 10
127.3783682631171
 20
17.48625746694593
 30
0.0
 10
127.3440607951647
 20
17.2587840381311
 30
0.0
 10
127.3195483081712
 20
17.09625559176139
 30
0.0
 10
127.2994148751238
 20
16.96276217699035
 30
0.0
 10
127.2808717687834
 20
16.8398133197338
 30
0.0
 10
127.2780880350151
 20
16.82135595453057
 30
0.0
 10
127.276340701517
 20
16.80977037372841
 30
0.0
  0
LINE
  5
3AF
330
1F
100
AcDbEntity
  8
0
  6
SLD-Сплошная
 62
     7
370
    25
100
AcDbLine
 10
127.4231043447
 20
88.9078455957
 30
0.0
 11
128.7979441016
 21
79.7920602508
 31
0.0
  0
SPLINE
  5
3B0
330
1F
100
AcDbEntity
  8
0
  6
SLD-Сплошная
 62
     7
370
    25
100
AcDbSpline
210
0.0
220
0.0
230
1.0
 70
     8
 71
     3
 72
     8
 73
     4
 74
     0
 42
0.00000001
 43
0.00000001
 40
0.0
 40
0.0
 40
0.0
 40
0.0
 40
1.0
 40
1.0
 40
1.0
 40
1.0
 10
127.4333980210421
 20
88.89815503163689
 30
0.0
 10
127.7129498075583
 20
87.49982486741494
 30
0.0
 10
128.3442432248763
 20
86.4575319415956
 30
0.0
 10
128.8860599478633
 20
86.49398077273592
 30
0.0
  0
SPLINE
  5
3B1
330
1F
100
AcDbEntity
  8
0
  6
SLD-Сплошная
 62
     7
370
    25
100
AcDbSpline
210
0.0
220
0.0
230
1.0
 70
     8
 71
     3
 72
     8
 73
     4
 74
     0
 42
0.00000001
 43
0.00000001
 40
0.0
 40
0.0
 40
0.0
 40
0.0
 40
1.0
 40
1.0
 40
1.0
 40
1.0
 10
130.3580381884912
 20
20.09405425012173
 30
0.0
 10
130.3341255203356
 20
20.12668304720163
 30
0.0
 10
130.31021285218
 20
20.15971368956943
 30
0.0
 10
130.2863001840244
 20
20.19250708283554
 30
0.0
  0
SPLINE
  5
3B2
330
1F
100
AcDbEntity
  8
0
  6
SLD-Сплошная
 62
     7
370
    25
100
AcDbSpline
210
0.0
220
0.0
230
1.0
 70
     8
 71
     3
 72
     8
 73
     4
 74
     0
 42
0.00000001
 43
0.00000001
 40
0.0
 40
0.0
 40
0.0
 40
0.0
 40
1.0
 40
1.0
 40
1.0
 40
1.0
 10
128.650444269902
 20
20.14963734030367
 30
0.0
 10
128.1703974812435
 20
19.93013731234478
 30
0.0
 10
127.6731053253458
 20
18.99242100853686
 30
0.0
 10
127.4334573249576
 20
17.79255859971224
 30
0.0
  0
LINE
  5
3B3
330
1F
100
AcDbEntity
  8
0
  6
SLD-Сплошная
 62
     7
370
    25
100
AcDbLine
 10
128.7979441016
 20
26.8986624829
 30
0.0
 11
127.4231043447
 21
17.782877138
 31
0.0
  0
LINE
  5
3B4
330
1F
100
AcDbEntity
  8
0
  6
SLD-Сплошная
 62
     7
370
    25
100
AcDbLine
 10
142.2856429456
 20
16.2008502589
 30
0.0
 11
142.2856429456
 21
17.5247551197
 31
0.0
  0
LINE
  5
3B5
330
1F
100
AcDbEntity
  8
0
  6
SLD-Сплошная
 62
     7
370
    25
100
AcDbLine
 10
142.2856429456
 20
89.165967614
 30
0.0
 11
142.2856429456
 21
90.4898724748
 31
0.0
  0
LINE
  5
3B6
330
1F
100
AcDbEntity
  8
0
  6
SLD-Сплошная
 62
     7
370
    25
100
AcDbLine
 10
142.2856429456
 20
90.4898724748
 30
0.0
 11
142.2856429456
 21
90.8516129136
 31
0.0
  0
LINE
  5
3B7
330
1F
100
AcDbEntity
  8
0
  6
SLD-Сплошная
 62
     7
370
    25
100
AcDbLine
 10
142.2856429456
 20
15.8391098201
 30
0.0
 11
142.2856429456
 21
16.2008502589
 31
0.0
  0
SPLINE
  5
3B8
330
1F
100
AcDbEntity
  8
0
  6
SLD-Сплошная
 62
     7
370
    25
100
AcDbSpline
210
0.0
220
0.0
230
1.0
 70
     8
 71
     3
 72
    13
 73
     9
 74
     0
 42
0.00000001
 43
0.00000001
 40
0.0
 40
0.0
 40
0.0
 40
0.0
 40
0.1690005748901692
 40
0.336047488224204
 40
0.4999844586435346
 40
0.691617167097076
 40
0.833109895847875
 40
1.0
 40
1.0
 40
1.0
 40
1.0
 10
128.7979781166173
 20
79.79206540203658
 30
0.0
 10
128.825296042704
 20
79.61092943876776
 30
0.0
 10
128.8796160972415
 20
79.25075145994656
 30
0.0
 10
128.9605165336118
 20
78.714320902289
 30
0.0
 10
129.0451288310041
 20
78.15328117237179
 30
0.0
 10
129.1256458770769
 20
77.6193711749049
 30
0.0
 10
129.2066894770697
 20
77.08202630257202
 30
0.0
 10
129.2566871133842
 20
76.7505219371076
 30
0.0
 10
129.2837447503265
 20
76.57111896075365
 30
0.0
  0
SPLINE
  5
3B9
330
1F
100
AcDbEntity
  8
0
  6
SLD-Сплошная
 62
     7
370
    25
100
AcDbSpline
210
0.0
220
0.0
230
1.0
 70
     8
 71
     3
 72
    12
 73
     8
 74
     0
 42
0.00000001
 43
0.00000001
 40
0.0
 40
0.0
 40
0.0
 40
0.0
 40
0.1593326241128804
 40
0.3264919891081909
 40
0.4999932487376184
 40
0.6398948426748563
 40
1.0
 40
1.0
 40
1.0
 40
1.0
 10
129.2837451326119
 20
30.11960371529292
 30
0.0
 10
129.257914134404
 20
29.94832801646099
 30
0.0
 10
129.2049832670909
 20
29.59736320991945
 30
0.0
 10
129.1239501456308
 20
29.06006580644569
 30
0.0
 10
129.046097203585
 20
28.5438676815641
 30
0.0
 10
128.9370449711869
 20
27.82077199684324
 30
0.0
 10
128.8562019756161
 20
27.28472127431177
 30
0.0
 10
128.7979788024985
 20
26.89865722760824
 30
0.0
  0
LINE
  5
3BA
330
1F
100
AcDbEntity
  8
0
  6
SLD-Сплошная
 62
     7
370
    25
100
AcDbLine
 10
142.2856429456
 20
90.8516129136
 30
0.0
 11
142.2856429456
 21
91.1453613671
 31
0.0
  0
LINE
  5
3BB
330
1F
100
AcDbEntity
  8
0
  6
SLD-Сплошная
 62
     7
370
    25
100
AcDbLine
 10
142.2856429456
 20
15.5453613666
 30
0.0
 11
142.2856429456
 21
15.8391098201
 31
0.0
  0
SPLINE
  5
3BC
330
1F
100
AcDbEntity
  8
0
  6
SLD-Сплошная
 62
     7
370
    25
100
AcDbSpline
210
0.0
220
0.0
230
1.0
 70
     8
 71
     3
 72
    11
 73
     7
 74
     0
 42
0.00000001
 43
0.00000001
 40
0.0
 40
0.0
 40
0.0
 40
0.0
 40
0.2545406183465159
 40
0.5035120690206885
 40
0.7518827466176159
 40
1.0
 40
1.0
 40
1.0
 40
1.0
 10
129.7184963448403
 20
29.91759796725944
 30
0.0
 10
129.7144549452911
 20
30.02640113949804
 30
0.0
 10
129.7064605691401
 20
30.24162694795936
 30
0.0
 10
129.6920112057188
 20
30.50475681658317
 30
0.0
 10
129.6916309878719
 20
30.68891260378705
 30
0.0
 10
129.6915179473619
 20
30.71355509814262
 30
0.0
 10
129.6914614559568
 20
30.72587005613956
 30
0.0
  0
SPLINE
  5
3BD
330
1F
100
AcDbEntity
  8
0
  6
SLD-Сплошная
 62
     7
370
    25
100
AcDbSpline
210
0.0
220
0.0
230
1.0
 70
     8
 71
     3
 72
    12
 73
     8
 74
     0
 42
0.00000001
 43
0.00000001
 40
0.0
 40
0.0
 40
0.0
 40
0.0
 40
0.0009281686482343
 40
0.2477296526200904
 40
0.4948742721127487
 40
0.745635776065923
 40
0.9999999999999999
 40
0.9999999999999999
 40
0.9999999999999999
 40
0.9999999999999999
 10
129.6914614559566
 20
75.96485267758244
 30
0.0
 10
129.6914612006468
 20
75.96477620724721
 30
0.0
 10
129.6913930580687
 20
75.94436615609942
 30
0.0
 10
129.6919545412561
 20
76.02024059730256
 30
0.0
 10
129.6956347976058
 20
76.18879571606277
 30
0.0
 10
129.7032177130946
 20
76.45229645971165
 30
0.0
 10
129.7133393088708
 20
76.66567164724353
 30
0.0
 10
129.7184362020055
 20
76.7731201714166
 30
0.0
  0
ENDSEC
  0
SECTION
  2
OBJECTS
  0
DICTIONARY
  5
C
330
0
100
AcDbDictionary
281
     1
  3
ACAD_GROUP
350
D
  3
ACAD_LAYOUT
350
1A
  3
ACAD_MLINESTYLE
350
17
  3
ACAD_PLOTSETTINGS
350
19
  3
ACAD_PLOTSTYLENAME
350
E
  3
ACAD_SCALELIST
350
47
  3
DWGPROPS
350
3BE
  0
DICTIONARY
  5
D
102
{ACAD_REACTORS
330
C
102
}
330
C
100
AcDbDictionary
281
     1
  0
DICTIONARY
  5
1A
102
{ACAD_REACTORS
330
C
102
}
330
C
100
AcDbDictionary
281
     1
  3
Layout1
350
1E
  3
Layout2
350
26
  3
Model
350
22
  0
DICTIONARY
  5
17
102
{ACAD_REACTORS
330
C
102
}
330
C
100
AcDbDictionary
281
     1
  3
Standard
350
18
  0
DICTIONARY
  5
19
102
{ACAD_REACTORS
330
C
102
}
330
C
100
AcDbDictionary
281
     1
  0
ACDBDICTIONARYWDFLT
  5
E
102
{ACAD_REACTORS
330
C
102
}
330
C
100
AcDbDictionary
281
     1
  3
Normal
350
F
100
AcDbDictionaryWithDefault
340
F
  0
DICTIONARY
  5
47
102
{ACAD_REACTORS
330
C
102
}
330
C
100
AcDbDictionary
281
     1
  3
A0
350
48
  3
A1
350
49
  3
A2
350
4A
  3
A3
350
4B
  3
A4
350
4C
  3
A5
350
4D
  3
A6
350
4E
  3
A7
350
4F
  3
A8
350
50
  3
A9
350
51
  3
B0
350
52
  3
B1
350
53
  3
B2
350
54
  3
B3
350
55
  3
B4
350
56
  3
B5
350
57
  3
B6
350
58
  0
XRECORD
  5
3BE
102
{ACAD_REACTORS
330
C
102
}
330
C
100
AcDbXrecord
280
     1
  1
DWGPROPS COOKIE
  2

  3

  4

  6

  7

  8
inyankin
  9

300
=
301
=
302
=
303
=
304
=
305
=
306
=
307
=
308
=
309
=
 40
0.0
 41
2461039.456514005
 42
2461039.456514676
  1

 90
        0
  0
LAYOUT
  5
1E
102
{ACAD_REACTORS
330
1A
102
}
330
1A
100
AcDbPlotSettings
  1

  2
none_device
  4

  6

 40
0.0
 41
0.0
 42
0.0
 43
0.0
 44
0.0
 45
0.0
 46
0.0
 47
0.0
 48
0.0
 49
0.0
140
0.0
141
0.0
142
1.0
143
1.0
 70
   688
 72
     1
 73
     0
 74
     5
  7

 75
    16
147
1.0
148
0.0
149
0.0
100
AcDbLayout
  1
Layout1
 70
     1
 71
     1
 10
0.0
 20
0.0
 11
420.0
 21
297.0
 12
0.0
 22
0.0
 32
0.0
 14
1.0000000000E+20
 24
1.0000000000E+20
 34
1.0000000000E+20
 15
-1.0000000000E+20
 25
-1.0000000000E+20
 35
-1.0000000000E+20
146
0.0
 13
0.0
 23
0.0
 33
0.0
 16
1.0
 26
0.0
 36
0.0
 17
0.0
 27
1.0
 37
0.0
 76
     0
330
1B
  0
LAYOUT
  5
26
102
{ACAD_REACTORS
330
1A
102
}
330
1A
100
AcDbPlotSettings
  1

  2
none_device
  4

  6

 40
0.0
 41
0.0
 42
0.0
 43
0.0
 44
0.0
 45
0.0
 46
0.0
 47
0.0
 48
0.0
 49
0.0
140
0.0
141
0.0
142
1.0
143
1.0
 70
   688
 72
     1
 73
     0
 74
     5
  7

 75
    16
147
1.0
148
0.0
149
0.0
100
AcDbLayout
  1
Layout2
 70
     1
 71
     2
 10
0.0
 20
0.0
 11
0.0
 21
0.0
 12
0.0
 22
0.0
 32
0.0
 14
0.0
 24
0.0
 34
0.0
 15
0.0
 25
0.0
 35
0.0
146
0.0
 13
0.0
 23
0.0
 33
0.0
 16
1.0
 26
0.0
 36
0.0
 17
0.0
 27
1.0
 37
0.0
 76
     0
330
23
  0
LAYOUT
  5
22
102
{ACAD_REACTORS
330
1A
102
}
330
1A
100
AcDbPlotSettings
  1

  2
none_device
  4
Letter_(8.50_x_11.00_Inches)
  6

 40
6.35
 41
6.35
 42
6.35000508
 43
6.35000508
 44
215.9
 45
279.4
 46
0.0
 47
0.0
 48
0.0
 49
0.0
140
0.0
141
0.0
142
1.0
143
1.0
 70
  1712
 72
     1
 73
     0
 74
     0
  7

 75
     0
147
1.0
148
0.0
149
0.0
100
AcDbLayout
  1
Model
 70
     1
 71
     0
 10
0.0
 20
0.0
 11
431.8
 21
279.4
 12
0.0
 22
0.0
 32
0.0
 14
0.0
 24
0.0
 34
0.0
 15
431.8
 25
279.4
 35
0.0
146
0.0
 13
0.0
 23
0.0
 33
0.0
 16
1.0
 26
0.0
 36
0.0
 17
0.0
 27
1.0
 37
0.0
 76
     0
330
1F
331
29
  0
MLINESTYLE
  5
18
102
{ACAD_REACTORS
330
17
102
}
330
17
100
AcDbMlineStyle
  2
Standard
 70
     0
  3

 62
   256
 51
90.0
 52
90.0
 71
     2
 49
0.5
 62
   256
  6
BYLAYER
 49
-0.5
 62
   256
  6
BYLAYER
  0
ACDBPLACEHOLDER
  5
F
102
{ACAD_REACTORS
330
E
102
}
330
E
  0
SCALE
  5
48
102
{ACAD_REACTORS
330
47
102
}
330
47
100
AcDbScale
 70
     0
300
1:1
140
1.0
141
1.0
290
     1
  0
SCALE
  5
49
102
{ACAD_REACTORS
330
47
102
}
330
47
100
AcDbScale
 70
     0
300
1:2
140
1.0
141
2.0
290
     0
  0
SCALE
  5
4A
102
{ACAD_REACTORS
330
47
102
}
330
47
100
AcDbScale
 70
     0
300
1:4
140
1.0
141
4.0
290
     0
  0
SCALE
  5
4B
102
{ACAD_REACTORS
330
47
102
}
330
47
100
AcDbScale
 70
     0
300
1:5
140
1.0
141
5.0
290
     0
  0
SCALE
  5
4C
102
{ACAD_REACTORS
330
47
102
}
330
47
100
AcDbScale
 70
     0
300
1:8
140
1.0
141
8.0
290
     0
  0
SCALE
  5
4D
102
{ACAD_REACTORS
330
47
102
}
330
47
100
AcDbScale
 70
     0
300
1:10
140
1.0
141
10.0
290
     0
  0
SCALE
  5
4E
102
{ACAD_REACTORS
330
47
102
}
330
47
100
AcDbScale
 70
     0
300
1:16
140
1.0
141
16.0
290
     0
  0
SCALE
  5
4F
102
{ACAD_REACTORS
330
47
102
}
330
47
100
AcDbScale
 70
     0
300
1:20
140
1.0
141
20.0
290
     0
  0
SCALE
  5
50
102
{ACAD_REACTORS
330
47
102
}
330
47
100
AcDbScale
 70
     0
300
1:30
140
1.0
141
30.0
290
     0
  0
SCALE
  5
51
102
{ACAD_REACTORS
330
47
102
}
330
47
100
AcDbScale
 70
     0
300
1:40
140
1.0
141
40.0
290
     0
  0
SCALE
  5
52
102
{ACAD_REACTORS
330
47
102
}
330
47
100
AcDbScale
 70
     0
300
1:50
140
1.0
141
50.0
290
     0
  0
SCALE
  5
53
102
{ACAD_REACTORS
330
47
102
}
330
47
100
AcDbScale
 70
     0
300
1:100
140
1.0
141
100.0
290
     0
  0
SCALE
  5
54
102
{ACAD_REACTORS
330
47
102
}
330
47
100
AcDbScale
 70
     0
300
2:1
140
2.0
141
1.0
290
     0
  0
SCALE
  5
55
102
{ACAD_REACTORS
330
47
102
}
330
47
100
AcDbScale
 70
     0
300
4:1
140
4.0
141
1.0
290
     0
  0
SCALE
  5
56
102
{ACAD_REACTORS
330
47
102
}
330
47
100
AcDbScale
 70
     0
300
8:1
140
8.0
141
1.0
290
     0
  0
SCALE
  5
57
102
{ACAD_REACTORS
330
47
102
}
330
47
100
AcDbScale
 70
     0
300
10:1
140
10.0
141
1.0
290
     0
  0
SCALE
  5
58
102
{ACAD_REACTORS
330
47
102
}
330
47
100
AcDbScale
 70
     0
300
100:1
140
100.0
141
1.0
290
     0
  0
ENDSEC
  0
EOF
