  0
SECTION
  2
HEADER
  9
$ACADVER
  1
AC1015
  9
$ACADMAINTVER
 70
     6
  9
$DWGCODEPAGE
  3
ANSI_1251
  9
$INSBASE
 10
0.0
 20
0.0
 30
0.0
  9
$EXTMIN
 10
0.0
 20
0.0
 30
0.0
  9
$EXTMAX
 10
420.0
 20
297.0
 30
0.0
  9
$LIMMIN
 10
0.0
 20
0.0
  9
$LIMMAX
 10
420.0
 20
297.0
  9
$ORTHOMODE
 70
     0
  9
$REGENMODE
 70
     1
  9
$FILLMODE
 70
     1
  9
$QTEXTMODE
 70
     0
  9
$MIRRTEXT
 70
     1
  9
$LTSCALE
 40
1.0
  9
$ATTMODE
 70
     1
  9
$TEXTSIZE
 40
3.5
  9
$TRACEWID
 40
1.0
  9
$TEXTSTYLE
  7
STANDARD
  9
$CLAYER
  8
0
  9
$CELTYPE
  6
ByLayer
  9
$CECOLOR
 62
   256
  9
$CELTSCALE
 40
1.0
  9
$DISPSILH
 70
     0
  9
$DIMSCALE
 40
1.0
  9
$DIMASZ
 40
5.0
  9
$DIMEXO
 40
0.0
  9
$DIMDLI
 40
3.75
  9
$DIMRND
 40
0.0
  9
$DIMDLE
 40
0.0
  9
$DIMEXE
 40
1.0
  9
$DIMTP
 40
0.0
  9
$DIMTM
 40
0.0
  9
$DIMTXT
 40
3.5
  9
$DIMCEN
 40
2.5
  9
$DIMTSZ
 40
0.0
  9
$DIMTOL
 70
     0
  9
$DIMLIM
 70
     0
  9
$DIMTIH
 70
     1
  9
$DIMTOH
 70
     1
  9
$DIMSE1
 70
     0
  9
$DIMSE2
 70
     0
  9
$DIMTAD
 70
     1
  9
$DIMZIN
 70
     0
  9
$DIMBLK
  1

  9
$DIMASO
 70
     1
  9
$DIMSHO
 70
     1
  9
$DIMPOST
  1

  9
$DIMAPOST
  1

  9
$DIMALT
 70
     0
  9
$DIMALTD
 70
     3
  9
$DIMALTF
 40
0.0393700787
  9
$DIMLFAC
 40
1.0
  9
$DIMTOFL
 70
     1
  9
$DIMTVP
 40
0.0
  9
$DIMTIX
 70
     0
  9
$DIMSOXD
 70
     0
  9
$DIMSAH
 70
     0
  9
$DIMBLK1
  1

  9
$DIMBLK2
  1

  9
$DIMSTYLE
  2
ISO-25
  9
$DIMCLRD
 70
     0
  9
$DIMCLRE
 70
     0
  9
$DIMCLRT
 70
     0
  9
$DIMTFAC
 40
1.0
  9
$DIMGAP
 40
1.5
  9
$DIMJUST
 70
     0
  9
$DIMSD1
 70
     0
  9
$DIMSD2
 70
     0
  9
$DIMTOLJ
 70
     0
  9
$DIMTZIN
 70
     0
  9
$DIMALTZ
 70
     0
  9
$DIMALTTZ
 70
     0
  9
$DIMUPT
 70
     0
  9
$DIMDEC
 70
     1
  9
$DIMTDEC
 70
     3
  9
$DIMALTU
 70
     2
  9
$DIMALTTD
 70
     3
  9
$DIMTXSTY
  7
STANDARD
  9
$DIMAUNIT
 70
     0
  9
$DIMADEC
 70
     2
  9
$DIMALTRND
 40
0.0
  9
$DIMAZIN
 70
     0
  9
$DIMDSEP
 70
    44
  9
$DIMATFIT
 70
     3
  9
$DIMFRAC
 70
     0
  9
$DIMLDRBLK
  1

  9
$DIMLUNIT
 70
     2
  9
$DIMLWD
 70
    -2
  9
$DIMLWE
 70
    -2
  9
$DIMTMOVE
 70
     0
  9
$LUNITS
 70
     2
  9
$LUPREC
 70
     3
  9
$SKETCHINC
 40
1.0
  9
$FILLETRAD
 40
0.0
  9
$AUNITS
 70
     0
  9
$AUPREC
 70
     2
  9
$MENU
  1
.
  9
$ELEVATION
 40
0.0
  9
$PELEVATION
 40
0.0
  9
$THICKNESS
 40
0.0
  9
$LIMCHECK
 70
     0
  9
$CHAMFERA
 40
0.0
  9
$CHAMFERB
 40
0.0
  9
$CHAMFERC
 40
0.0
  9
$CHAMFERD
 40
0.0
  9
$SKPOLY
 70
     0
  9
$TDCREATE
 40
2461020.645545799
  9
$TDUCREATE
 40
2461020.520545799
  9
$TDUPDATE
 40
2461020.645546678
  9
$TDUUPDATE
 40
2461020.520546678
  9
$TDINDWG
 40
0.0000000116
  9
$TDUSRTIMER
 40
0.0000000116
  9
$USRTIMER
 70
     1
  9
$ANGBASE
 50
0.0
  9
$ANGDIR
 70
     0
  9
$PDMODE
 70
     0
  9
$PDSIZE
 40
-1.0
  9
$PLINEWID
 40
0.0
  9
$SPLFRAME
 70
     0
  9
$SPLINETYPE
 70
     6
  9
$SPLINESEGS
 70
     8
  9
$HANDSEED
  5
39D
  9
$SURFTAB1
 70
     6
  9
$SURFTAB2
 70
     6
  9
$SURFTYPE
 70
     6
  9
$SURFU
 70
     6
  9
$SURFV
 70
     6
  9
$UCSBASE
  2

  9
$UCSNAME
  2

  9
$UCSORG
 10
0.0
 20
0.0
 30
0.0
  9
$UCSXDIR
 10
1.0
 20
0.0
 30
0.0
  9
$UCSYDIR
 10
0.0
 20
1.0
 30
0.0
  9
$UCSORTHOREF
  2

  9
$UCSORTHOVIEW
 70
     0
  9
$UCSORGTOP
 10
0.0
 20
0.0
 30
0.0
  9
$UCSORGBOTTOM
 10
0.0
 20
0.0
 30
0.0
  9
$UCSORGLEFT
 10
0.0
 20
0.0
 30
0.0
  9
$UCSORGRIGHT
 10
0.0
 20
0.0
 30
0.0
  9
$UCSORGFRONT
 10
0.0
 20
0.0
 30
0.0
  9
$UCSORGBACK
 10
0.0
 20
0.0
 30
0.0
  9
$PUCSBASE
  2

  9
$PUCSNAME
  2

  9
$PUCSORG
 10
0.0
 20
0.0
 30
0.0
  9
$PUCSXDIR
 10
1.0
 20
0.0
 30
0.0
  9
$PUCSYDIR
 10
0.0
 20
1.0
 30
0.0
  9
$PUCSORTHOREF
  2

  9
$PUCSORTHOVIEW
 70
     0
  9
$PUCSORGTOP
 10
0.0
 20
0.0
 30
0.0
  9
$PUCSORGBOTTOM
 10
0.0
 20
0.0
 30
0.0
  9
$PUCSORGLEFT
 10
0.0
 20
0.0
 30
0.0
  9
$PUCSORGRIGHT
 10
0.0
 20
0.0
 30
0.0
  9
$PUCSORGFRONT
 10
0.0
 20
0.0
 30
0.0
  9
$PUCSORGBACK
 10
0.0
 20
0.0
 30
0.0
  9
$USERI1
 70
     0
  9
$USERI2
 70
     0
  9
$USERI3
 70
     0
  9
$USERI4
 70
     0
  9
$USERI5
 70
     0
  9
$USERR1
 40
0.0
  9
$USERR2
 40
0.0
  9
$USERR3
 40
0.0
  9
$USERR4
 40
0.0
  9
$USERR5
 40
0.0
  9
$WORLDVIEW
 70
     1
  9
$SHADEDGE
 70
     3
  9
$SHADEDIF
 70
    70
  9
$TILEMODE
 70
     1
  9
$MAXACTVP
 70
    64
  9
$PINSBASE
 10
0.0
 20
0.0
 30
0.0
  9
$PLIMCHECK
 70
     0
  9
$PEXTMIN
 10
1.0000000000E+20
 20
1.0000000000E+20
 30
1.0000000000E+20
  9
$PEXTMAX
 10
-1.0000000000E+20
 20
-1.0000000000E+20
 30
-1.0000000000E+20
  9
$PLIMMIN
 10
0.0
 20
0.0
  9
$PLIMMAX
 10
420.0
 20
297.0
  9
$UNITMODE
 70
     0
  9
$VISRETAIN
 70
     1
  9
$PLINEGEN
 70
     0
  9
$PSLTSCALE
 70
     1
  9
$TREEDEPTH
 70
  3020
  9
$CMLSTYLE
  2
Standard
  9
$CMLJUST
 70
     0
  9
$CMLSCALE
 40
20.0
  9
$PROXYGRAPHICS
 70
     1
  9
$MEASUREMENT
 70
     1
  9
$CELWEIGHT
370
    -1
  9
$ENDCAPS
280
     0
  9
$JOINSTYLE
280
     0
  9
$LWDISPLAY
290
     1
  9
$INSUNITS
 70
     4
  9
$HYPERLINKBASE
  1

  9
$STYLESHEET
  1

  9
$XEDIT
290
     1
  9
$CEPSNTYPE
380
     0
  9
$PSTYLEMODE
290
     1
  9
$FINGERPRINTGUID
  2
{38fe7831-75ee-4af7-9cb4-be55d614f03d}
  9
$VERSIONGUID
  2
{FAEB1C32-E019-11D5-929B-00C0DF256EC4}
  9
$EXTNAMES
290
     1
  9
$PSVPSCALE
 40
0.0
  9
$OLESTARTUP
290
     0
  0
ENDSEC
  0
SECTION
  2
CLASSES
  0
CLASS
  1
ACDBDICTIONARYWDFLT
  2
AcDbDictionaryWithDefault
  3
ObjectDBX Classes
 90
        0
280
     0
281
     0
  0
CLASS
  1
VISUALSTYLE
  2
AcDbVisualStyle
  3
ObjectDBX Classes
 90
     4095
280
     0
281
     0
  0
CLASS
  1
MATERIAL
  2
AcDbMaterial
  3
ObjectDBX Classes
 90
     1153
280
     0
281
     0
  0
CLASS
  1
SCALE
  2
AcDbScale
  3
ObjectDBX Classes
 90
     1153
280
     0
281
     0
  0
CLASS
  1
TABLESTYLE
  2
AcDbTableStyle
  3
ObjectDBX Classes
 90
     4095
280
     0
281
     0
  0
CLASS
  1
MLEADERSTYLE
  2
AcDbMLeaderStyle
  3
ACDB_MLEADERSTYLE_CLASS
 90
     4095
280
     0
281
     0
  0
CLASS
  1
SUN
  2
AcDbSun
  3
SCENEOE
 90
     1153
280
     0
281
     0
  0
CLASS
  1
ACDBPLACEHOLDER
  2
AcDbPlaceHolder
  3
ObjectDBX Classes
 90
        0
280
     0
281
     0
  0
CLASS
  1
LAYOUT
  2
AcDbLayout
  3
ObjectDBX Classes
 90
        0
280
     0
281
     0
  0
ENDSEC
  0
SECTION
  2
TABLES
  0
TABLE
  2
VPORT
  5
8
330
0
100
AcDbSymbolTable
 70
     1
  0
VPORT
  5
29
330
8
100
AcDbSymbolTableRecord
100
AcDbViewportTableRecord
  2
*Active
 70
     0
 10
0.0
 20
0.0
 11
1.0
 21
1.0
 12
210.0
 22
148.5
 13
0.0
 23
0.0
 14
10.0
 24
10.0
 15
10.0
 25
10.0
 16
0.0
 26
0.0
 36
1.0
 17
0.0
 27
0.0
 37
0.0
 40
297.0
 41
1.4141414141
 42
50.0
 43
0.0
 44
0.0
 50
0.0
 51
0.0
 71
     0
 72
  2000
 73
     1
 74
     3
 75
     0
 76
     0
 77
     0
 78
     0
281
     0
 65
     1
110
0.0
120
0.0
130
0.0
111
1.0
121
0.0
131
0.0
112
0.0
122
1.0
132
0.0
 79
     0
146
0.0
  0
ENDTAB
  0
TABLE
  2
LTYPE
  5
5
330
0
100
AcDbSymbolTable
 70
     8
  0
LTYPE
  5
14
330
5
100
AcDbSymbolTableRecord
100
AcDbLinetypeTableRecord
  2
ByBlock
 70
     0
  3

 72
    65
 73
     0
 40
0.0
  0
LTYPE
  5
15
330
5
100
AcDbSymbolTableRecord
100
AcDbLinetypeTableRecord
  2
ByLayer
 70
     0
  3

 72
    65
 73
     0
 40
0.0
  0
LTYPE
  5
16
330
5
100
AcDbSymbolTableRecord
100
AcDbLinetypeTableRecord
  2
Continuous
 70
     0
  3
Solid line
 72
    65
 73
     0
 40
0.0
  0
LTYPE
  5
5E
330
5
100
AcDbSymbolTableRecord
100
AcDbLinetypeTableRecord
  2
SLD-Сплошная
 70
     0
  3
SolidWorks Line Style
 72
    65
 73
     0
 40
0.0
  0
LTYPE
  5
5F
330
5
100
AcDbSymbolTableRecord
100
AcDbLinetypeTableRecord
  2
SLD-Штриховая
 70
     0
  3
SolidWorks Line Style
 72
    65
 73
     2
 40
1.905
 49
1.27
 74
     0
 49
-0.635
 74
     0
  0
LTYPE
  5
60
330
5
100
AcDbSymbolTableRecord
100
AcDbLinetypeTableRecord
  2
SLD-Штрихпункт.-с-двумя-точками
 70
     0
  3
SolidWorks Line Style
 72
    65
 73
     6
 40
12.7
 49
6.35
 74
     0
 49
-1.27
 74
     0
 49
1.27
 74
     0
 49
-1.27
 74
     0
 49
1.27
 74
     0
 49
-1.27
 74
     0
  0
LTYPE
  5
61
330
5
100
AcDbSymbolTableRecord
100
AcDbLinetypeTableRecord
  2
SLD-Штрихпункт.-утолщ.
 70
     0
  3
SolidWorks Line Style
 72
    65
 73
     4
 40
10.16
 49
6.35
 74
     0
 49
-1.27
 74
     0
 49
1.27
 74
     0
 49
-1.27
 74
     0
  0
LTYPE
  5
62
330
5
100
AcDbSymbolTableRecord
100
AcDbLinetypeTableRecord
  2
SLD-Осевая
 70
     0
  3
SolidWorks Line Style
 72
    65
 73
     4
 40
19.05
 49
15.24
 74
     0
 49
-1.27
 74
     0
 49
1.27
 74
     0
 49
-1.27
 74
     0
  0
LTYPE
  5
63
330
5
100
AcDbSymbolTableRecord
100
AcDbLinetypeTableRecord
  2
SLD-Сшитая
 70
     0
  3
SolidWorks Line Style
 72
    65
 73
     2
 40
0.635
 49
0.0
 74
     0
 49
-0.635
 74
     0
  0
LTYPE
  5
64
330
5
100
AcDbSymbolTableRecord
100
AcDbLinetypeTableRecord
  2
SLD-Тонкая-Толстая
 70
     0
  3
SolidWorks Line Style
 72
    65
 73
     2
 40
5.080508
 49
0.000508
 74
     0
 49
-5.08
 74
     0
  0
ENDTAB
  0
TABLE
  2
LAYER
  5
2
330
0
100
AcDbSymbolTable
 70
     3
  0
LAYER
  5
10
330
2
100
AcDbSymbolTableRecord
100
AcDbLayerTableRecord
  2
0
 70
     0
 62
     7
  6
Continuous
370
    -3
390
F
  0
LAYER
  5
65
330
2
100
AcDbSymbolTableRecord
100
AcDbLayerTableRecord
  2
ВОДЯНОЙ_ЗНАК
 70
     0
 62
    11
  6
SLD-Сплошная
370
    -3
390
F
  0
LAYER
  5
66
330
2
100
AcDbSymbolTableRecord
100
AcDbLayerTableRecord
  2
ОСНОВНОЙ
 70
     0
 62
     7
  6
SLD-Сплошная
370
    -3
390
F
  0
ENDTAB
  0
TABLE
  2
STYLE
  5
3
330
0
100
AcDbSymbolTable
 70
     1
  0
STYLE
  5
11
330
3
100
AcDbSymbolTableRecord
100
AcDbTextStyleTableRecord
  2
STANDARD
 70
     0
 40
0.0
 41
1.0
 50
0.0
 71
     0
 42
3.5
  3
GOST-TYPE-A.TTF
  4

1001
ACAD
1000
GOST TYPE A
1071
 16777250
  0
ENDTAB
  0
TABLE
  2
VIEW
  5
6
330
0
100
AcDbSymbolTable
 70
     0
  0
ENDTAB
  0
TABLE
  2
UCS
  5
7
330
0
100
AcDbSymbolTable
 70
     0
  0
ENDTAB
  0
TABLE
  2
APPID
  5
9
330
0
100
AcDbSymbolTable
 70
     1
  0
APPID
  5
12
330
9
100
AcDbSymbolTableRecord
100
AcDbRegAppTableRecord
  2
ACAD
 70
     0
  0
ENDTAB
  0
TABLE
  2
DIMSTYLE
  5
A
330
0
100
AcDbSymbolTable
 70
     1
100
AcDbDimStyleTable
  0
DIMSTYLE
105
27
330
A
100
AcDbSymbolTableRecord
100
AcDbDimStyleTableRecord
  2
ISO-25
 70
     0
 41
2.5
 42
0.625
 43
3.75
 44
1.25
 73
     0
 74
     0
 77
     1
 78
     8
140
2.5
141
2.5
143
0.0393700787
147
0.625
171
     3
172
     1
178
     0
271
     2
272
     2
274
     3
278
    44
283
     0
284
     8
340
11
  0
ENDTAB
  0
TABLE
  2
BLOCK_RECORD
  5
1
330
0
100
AcDbSymbolTable
 70
     1
  0
BLOCK_RECORD
  5
1F
330
1
100
AcDbSymbolTableRecord
100
AcDbBlockTableRecord
  2
*Model_Space
340
22
  0
BLOCK_RECORD
  5
1B
330
1
100
AcDbSymbolTableRecord
100
AcDbBlockTableRecord
  2
*Paper_Space
340
1E
  0
BLOCK_RECORD
  5
23
330
1
100
AcDbSymbolTableRecord
100
AcDbBlockTableRecord
  2
*Paper_Space0
340
26
  0
ENDTAB
  0
ENDSEC
  0
SECTION
  2
BLOCKS
  0
BLOCK
  5
20
330
1F
100
AcDbEntity
  8
0
100
AcDbBlockBegin
  2
*Model_Space
 70
     0
 10
0.0
 20
0.0
 30
0.0
  3
*Model_Space
  1

  0
ENDBLK
  5
21
330
1F
100
AcDbEntity
  8
0
100
AcDbBlockEnd
  0
BLOCK
  5
1C
330
1B
100
AcDbEntity
 67
     1
  8
0
100
AcDbBlockBegin
  2
*Paper_Space
 70
     0
 10
0.0
 20
0.0
 30
0.0
  3
*Paper_Space
  1

  0
ENDBLK
  5
1D
330
1B
100
AcDbEntity
 67
     1
  8
0
100
AcDbBlockEnd
  0
BLOCK
  5
24
330
23
100
AcDbEntity
  8
0
100
AcDbBlockBegin
  2
*Paper_Space0
 70
     0
 10
0.0
 20
0.0
 30
0.0
  3
*Paper_Space0
  1

  0
ENDBLK
  5
25
330
23
100
AcDbEntity
  8
0
100
AcDbBlockEnd
  0
ENDSEC
  0
SECTION
  2
ENTITIES
  0
LINE
  5
67
330
1F
100
AcDbEntity
  8
0
  6
SLD-Сплошная
 62
     7
370
    25
100
AcDbLine
 10
143.9275566165
 20
119.9436312916
 30
0.0
 11
159.6261664156
 21
119.9436312916
 31
0.0
  0
LINE
  5
68
330
1F
100
AcDbEntity
  8
0
  6
SLD-Сплошная
 62
     7
370
    25
100
AcDbLine
 10
159.6261664156
 20
176.0436312916
 30
0.0
 11
135.4261664158
 21
176.0436312916
 31
0.0
  0
ARC
  5
69
330
1F
100
AcDbEntity
  8
0
  6
SLD-Сплошная
 62
     7
370
    25
100
AcDbCircle
 10
201.5850590214
 20
124.9936313091
 30
0.0
 40
49.99999998284431
100
AcDbArc
 50
82.5978953344
 51
89.9999999999
  0
ARC
  5
6A
330
1F
100
AcDbEntity
  8
0
  6
SLD-Сплошная
 62
     7
370
    25
100
AcDbCircle
 10
201.5850590214
 20
170.9936312742
 30
0.0
 40
49.99999998284431
100
AcDbArc
 50
270.0000000001
 51
280.386839963
  0
LINE
  5
6B
330
1F
100
AcDbEntity
  8
0
  6
SLD-Сплошная
 62
     7
370
    25
100
AcDbLine
 10
201.5850590217
 20
174.9936312916
 30
0.0
 11
179.6261664151
 21
174.9936312916
 31
0.0
  0
LINE
  5
6C
330
1F
100
AcDbEntity
  8
0
  6
SLD-Сплошная
 62
     7
370
    25
100
AcDbLine
 10
179.6261664151
 20
120.9936312916
 30
0.0
 11
201.5850590217
 21
120.9936312916
 31
0.0
  0
LINE
  5
6D
330
1F
100
AcDbEntity
  8
0
  6
SLD-Сплошная
 62
     7
370
    25
100
AcDbLine
 10
243.5262196844
 20
168.1439221343
 30
0.0
 11
221.926219682
 21
172.1000718629
 31
0.0
  0
LINE
  5
6E
330
1F
100
AcDbEntity
  8
0
  6
SLD-Сплошная
 62
     7
370
    25
100
AcDbLine
 10
210.5929705843
 20
121.8114485742
 30
0.0
 11
238.4274958056
 21
126.9094832681
 31
0.0
  0
ARC
  5
6F
330
1F
100
AcDbEntity
  8
0
  6
SLD-Сплошная
 62
     7
370
    25
100
AcDbCircle
 10
245.2761664148
 20
170.5936312922
 30
0.0
 40
1.749999999316344
100
AcDbArc
 50
90.0000000174
 51
180.0000000004
  0
ARC
  5
70
330
1F
100
AcDbEntity
  8
0
  6
SLD-Сплошная
 62
     7
370
    25
100
AcDbCircle
 10
245.332325524
 20
170.5945326209
 30
0.0
 40
1.75000000178355
100
AcDbArc
 50
52.3167782626
 51
91.8389900363
  0
LINE
  5
71
330
1F
100
AcDbEntity
  8
0
  6
SLD-Сплошная
 62
     7
370
    25
100
AcDbLine
 10
247.2303715674
 20
124.6461984843
 30
0.0
 11
249.4268226947
 21
126.3427816477
 31
0.0
  0
LINE
  5
72
330
1F
100
AcDbEntity
  8
0
  6
SLD-Сплошная
 62
     7
370
    25
100
AcDbLine
 10
249.4268226947
 20
169.644480937
 30
0.0
 11
246.4027486065
 21
171.9803367724
 31
0.0
  0
LINE
  5
73
330
1F
100
AcDbEntity
  8
0
  6
SLD-Сплошная
 62
     7
370
    25
100
AcDbLine
 10
258.6435464804
 20
125.3436312916
 30
0.0
 11
261.6435464804
 21
125.3436312916
 31
0.0
  0
LINE
  5
74
330
1F
100
AcDbEntity
  8
0
  6
SLD-Сплошная
 62
     7
370
    25
100
AcDbLine
 10
261.6435464804
 20
170.6436312916
 30
0.0
 11
258.6435464804
 21
170.6436312916
 31
0.0
  0
LINE
  5
75
330
1F
100
AcDbEntity
  8
0
  6
SLD-Сплошная
 62
     7
370
    25
100
AcDbLine
 10
249.4261664154
 20
130.7436312916
 30
0.0
 11
258.6435464812
 21
130.7436312916
 31
0.0
  0
LINE
  5
76
330
1F
100
AcDbEntity
  8
0
  6
SLD-Сплошная
 62
     7
370
    25
100
AcDbLine
 10
258.6435464812
 20
165.2436312916
 30
0.0
 11
249.4261664154
 21
165.2436312916
 31
0.0
  0
SPLINE
  5
77
330
1F
100
AcDbEntity
  8
0
  6
SLD-Сплошная
 62
     7
370
    25
100
AcDbSpline
210
0.0
220
0.0
230
1.0
 70
     8
 71
     3
 72
     9
 73
     5
 74
     0
 42
0.00000001
 43
0.00000001
 40
0.0
 40
0.0
 40
0.0
 40
0.0
 40
0.4986091016987958
 40
0.9999999999999999
 40
0.9999999999999999
 40
0.9999999999999999
 40
0.9999999999999999
 10
246.096444670371
 20
124.5433449126432
 30
0.0
 10
246.3904387165753
 20
124.5484691633721
 30
0.0
 10
246.9800670350367
 20
124.5587462536044
 30
0.0
 10
247.1468585106931
 20
124.6179562640841
 30
0.0
 10
247.2304862385014
 20
124.6476436244269
 30
0.0
  0
LINE
  5
78
330
1F
100
AcDbEntity
  8
0
  6
SLD-Сплошная
 62
     7
370
    25
100
AcDbLine
 10
238.4261664154
 20
126.9100301908
 30
0.0
 11
238.4261664154
 21
125.5433449133
 31
0.0
  0
ARC
  5
79
330
1F
100
AcDbEntity
  8
0
  6
SLD-Сплошная
 62
     7
370
    25
100
AcDbCircle
 10
239.4261664159
 20
125.5433449135
 30
0.0
 40
1.00000000071509
100
AcDbArc
 50
179.9999999875
 51
269.9999999828
  0
LINE
  5
7A
330
1F
100
AcDbEntity
  8
0
  6
SLD-Сплошная
 62
     7
370
    25
100
AcDbLine
 10
135.4261664158
 20
115.2936312916
 30
0.0
 11
143.9261664157
 21
115.2936312916
 31
0.0
  0
LINE
  5
7B
330
1F
100
AcDbEntity
  8
0
  6
SLD-Сплошная
 62
     7
370
    25
100
AcDbLine
 10
135.4261664158
 20
138.2436312898
 30
0.0
 11
134.5261664153
 21
138.2436312898
 31
0.0
  0
LINE
  5
7C
330
1F
100
AcDbEntity
  8
0
  6
SLD-Сплошная
 62
     7
370
    25
100
AcDbLine
 10
134.5261664153
 20
131.2436312898
 30
0.0
 11
135.4261664158
 21
131.2436312898
 31
0.0
  0
LINE
  5
7D
330
1F
100
AcDbEntity
  8
0
  6
SLD-Сплошная
 62
     7
370
    25
100
AcDbLine
 10
165.6261664153
 20
191.4936312898
 30
0.0
 11
159.6261664153
 21
191.4936312898
 31
0.0
  0
SPLINE
  5
7E
330
1F
100
AcDbEntity
  8
0
  6
SLD-Сплошная
 62
     7
370
    25
100
AcDbSpline
210
0.0
220
0.0
230
1.0
 70
     8
 71
     3
 72
    13
 73
     9
 74
     0
 42
0.00000001
 43
0.00000001
 40
0.0
 40
0.0
 40
0.0
 40
0.0
 40
0.0769299272980225
 40
0.4038444382313328
 40
0.5577005927429842
 40
0.745965864959282
 40
0.8655830446798238
 40
0.9999999999999999
 40
0.9999999999999999
 40
0.9999999999999999
 40
0.9999999999999999
 10
182.0573687842811
 20
122.3525499604639
 30
0.0
 10
182.084857221095
 20
122.3992384650291
 30
0.0
 10
182.2291580506017
 20
122.6443302460853
 30
0.0
 10
182.2546267581841
 20
122.9765950028607
 30
0.0
 10
182.2654354934983
 20
123.4347807536267
 30
0.0
 10
182.2475859281198
 20
123.7802916387807
 30
0.0
 10
182.2213502919095
 20
124.1201969173314
 30
0.0
 10
182.2003242845557
 20
124.3020530459288
 30
0.0
 10
182.1891988037592
 20
124.398278488657
 30
0.0
  0
LINE
  5
7F
330
1F
100
AcDbEntity
  8
0
  6
SLD-Сплошная
 62
     7
370
    25
100
AcDbLine
 10
182.0922791884
 20
124.9631456064
 30
0.0
 11
180.6899717807
 21
130.2937224659
 31
0.0
  0
LINE
  5
80
330
1F
100
AcDbEntity
  8
0
  6
SLD-Сплошная
 62
     7
370
    25
100
AcDbLine
 10
163.6261664153
 20
121.9622312916
 30
0.0
 11
181.1568456855
 21
121.9622312916
 31
0.0
  0
SPLINE
  5
81
330
1F
100
AcDbEntity
  8
0
  6
SLD-Сплошная
 62
     7
370
    25
100
AcDbSpline
210
0.0
220
0.0
230
1.0
 70
     8
 71
     3
 72
    11
 73
     7
 74
     0
 42
0.00000001
 43
0.00000001
 40
0.0
 40
0.0
 40
0.0
 40
0.0
 40
0.2808624159863149
 40
0.5792897963409019
 40
0.8937807005704284
 40
1.0
 40
1.0
 40
1.0
 40
1.0
 10
181.1568456854731
 20
121.9622313015675
 30
0.0
 10
181.2556937899627
 20
121.9674757058344
 30
0.0
 10
181.4595718991695
 20
121.9782924962156
 30
0.0
 10
181.7399446214652
 20
122.0756894911798
 30
0.0
 10
181.9359539040919
 20
122.1860194262709
 30
0.0
 10
182.0042484377061
 20
122.2878873024185
 30
0.0
 10
182.0214911797462
 20
122.3136065132783
 30
0.0
  0
LINE
  5
82
330
1F
100
AcDbEntity
  8
0
  6
SLD-Сплошная
 62
     7
370
    25
100
AcDbLine
 10
182.0949950493
 20
122.4141199264
 30
0.0
 11
182.1346967085
 21
122.4684102555
 31
0.0
  0
LINE
  5
83
330
1F
100
AcDbEntity
  8
0
  6
SLD-Сплошная
 62
     7
370
    25
100
AcDbLine
 10
159.6261664153
 20
104.4936312898
 30
0.0
 11
165.6261664153
 21
104.4936312898
 31
0.0
  0
SPLINE
  5
84
330
1F
100
AcDbEntity
  8
0
  6
SLD-Сплошная
 62
     7
370
    25
100
AcDbSpline
210
0.0
220
0.0
230
1.0
 70
     8
 71
     3
 72
     9
 73
     5
 74
     0
 42
0.00000001
 43
0.00000001
 40
0.0
 40
0.0
 40
0.0
 40
0.0
 40
0.5191908420842029
 40
1.0
 40
1.0
 40
1.0
 40
1.0
 10
180.6706029161346
 20
130.3567603639465
 30
0.0
 10
180.5925571196962
 20
130.6594041319111
 30
0.0
 10
180.4422351376575
 20
131.2423184351561
 30
0.0
 10
180.2921635380258
 20
131.8671514390798
 30
0.0
 10
180.2200077385798
 20
132.1675768695344
 30
0.0
  0
SPLINE
  5
85
330
1F
100
AcDbEntity
  8
0
  6
SLD-Сплошная
 62
     7
370
    25
100
AcDbSpline
210
0.0
220
0.0
230
1.0
 70
     8
 71
     3
 72
    13
 73
     9
 74
     0
 42
0.00000001
 43
0.00000001
 40
0.0
 40
0.0
 40
0.0
 40
0.0
 40
0.1363924858749092
 40
0.2708206066706857
 40
0.5290934883345367
 40
0.7687590387451381
 40
0.8838868593424013
 40
1.0
 40
1.0
 40
1.0
 40
1.0
 10
180.2211903381606
 20
132.1623170796899
 30
0.0
 10
180.2085075786633
 20
132.2044352924513
 30
0.0
 10
180.1833247205368
 20
132.288065118968
 30
0.0
 10
180.1106412951395
 20
132.4460146294639
 30
0.0
 10
179.9972059898373
 20
132.6151442822089
 30
0.0
 10
179.8516313347527
 20
132.751009103967
 30
0.0
 10
179.7240119230784
 20
132.8390245538716
 30
0.0
 10
179.6588741022013
 20
132.8722613768395
 30
0.0
 10
179.626166415308
 20
132.8889505995419
 30
0.0
  0
LINE
  5
86
330
1F
100
AcDbEntity
  8
0
  6
SLD-Сплошная
 62
     7
370
    25
100
AcDbLine
 10
165.6261664153
 20
104.4936312898
 30
0.0
 11
166.6261664182
 21
106.3436312898
 31
0.0
  0
LINE
  5
87
330
1F
100
AcDbEntity
  8
0
  6
SLD-Сплошная
 62
     7
370
    25
100
AcDbLine
 10
166.6261664182
 20
106.3436312898
 30
0.0
 11
179.6261664153
 21
106.3436312898
 31
0.0
  0
LINE
  5
88
330
1F
100
AcDbEntity
  8
0
  6
SLD-Сплошная
 62
     7
370
    25
100
AcDbLine
 10
166.282419927
 20
190.2795622967
 30
0.0
 11
165.6261664153
 21
191.4936312898
 31
0.0
  0
LINE
  5
89
330
1F
100
AcDbEntity
  8
0
  6
SLD-Сплошная
 62
     7
370
    25
100
AcDbLine
 10
135.4261664154
 20
120.1045205134
 30
0.0
 11
143.927556612
 21
120.1045205137
 31
0.0
  0
LINE
  5
8A
330
1F
100
AcDbEntity
  8
0
  6
SLD-Сплошная
 62
     7
370
    25
100
AcDbLine
 10
135.4261664154
 20
120.1045205134
 30
0.0
 11
135.4261664158
 21
147.9936312916
 31
0.0
  0
LINE
  5
8B
330
1F
100
AcDbEntity
  8
0
  6
SLD-Сплошная
 62
     7
370
    25
100
AcDbLine
 10
135.4261664158
 20
147.9936312916
 30
0.0
 11
135.4261664158
 21
176.0436312916
 31
0.0
  0
SPLINE
  5
8C
330
1F
100
AcDbEntity
  8
0
  6
SLD-Сплошная
 62
     7
370
    25
100
AcDbSpline
210
0.0
220
0.0
230
1.0
 70
     8
 71
     3
 72
     8
 73
     4
 74
     0
 42
0.00000001
 43
0.00000001
 40
0.0
 40
0.0
 40
0.0
 40
0.0
 40
0.0004810045872832
 40
0.0004810045872832
 40
0.0004810045872832
 40
0.0004810045872832
 10
208.2958061208017
 20
174.3290297700028
 30
0.0
 10
208.134657633668
 20
174.3510316537941
 30
0.0
 10
207.97353592257
 20
174.3722224180929
 30
0.0
 10
207.8124408553541
 20
174.3926060459135
 30
0.0
  0
SPLINE
  5
8D
330
1F
100
AcDbEntity
  8
0
  6
SLD-Сплошная
 62
     7
370
    25
100
AcDbSpline
210
0.0
220
0.0
230
1.0
 70
     8
 71
     3
 72
     8
 73
     4
 74
     0
 42
0.00000001
 43
0.00000001
 40
0.0
 40
0.0
 40
0.0
 40
0.0
 40
1.0
 40
1.0
 40
1.0
 40
1.0
 10
210.592970586614
 20
173.9603109293542
 30
0.0
 10
209.8395656183743
 20
174.0994444586956
 30
0.0
 10
209.0736373351841
 20
174.222831067509
 30
0.0
 10
208.2958061208017
 20
174.3290297700028
 30
0.0
  0
LINE
  5
8E
330
1F
100
AcDbEntity
  8
0
  6
SLD-Сплошная
 62
     7
370
    25
100
AcDbLine
 10
210.5929705866
 20
173.9603109294
 30
0.0
 11
221.4261664154
 21
171.9583453001
 31
0.0
  0
LINE
  5
8F
330
1F
100
AcDbEntity
  8
0
  6
SLD-Сплошная
 62
     7
370
    25
100
AcDbLine
 10
221.4261664154
 20
171.9583453001
 30
0.0
 11
221.9261664154
 21
171.8661771836
 31
0.0
  0
LINE
  5
90
330
1F
100
AcDbEntity
  8
0
  6
SLD-Сплошная
 62
     7
370
    25
100
AcDbLine
 10
243.5261661653
 20
128.3525391154
 30
0.0
 11
242.926166535
 21
128.2398145599
 31
0.0
  0
SPLINE
  5
91
330
1F
100
AcDbEntity
  8
0
  6
SLD-Сплошная
 62
     7
370
    25
100
AcDbSpline
210
0.0
220
0.0
230
1.0
 70
     8
 71
     3
 72
    15
 73
    11
 74
     0
 42
0.00000001
 43
0.00000001
 40
0.0
 40
0.0
 40
0.0
 40
0.0
 40
0.1799994516437287
 40
0.3224282734086993
 40
0.4995672563028531
 40
0.6346126305521849
 40
0.7625734416102182
 40
0.8838853273263972
 40
0.9990598660332513
 40
1.0
 40
1.0
 40
1.0
 40
1.0
 10
242.9261665350126
 20
128.2398145596883
 30
0.0
 10
242.5028995288144
 20
128.1475927283513
 30
0.0
 10
241.7447124968367
 20
127.9823981926068
 30
0.0
 10
240.6624837607376
 20
127.6952218401805
 30
0.0
 10
239.8038861750175
 20
127.4221437574545
 30
0.0
 10
239.1500391720596
 20
127.1815647162115
 30
0.0
 10
238.7172342508076
 20
127.0237462795196
 30
0.0
 10
238.5043458001448
 20
126.9420641852942
 30
0.0
 10
238.3763859180349
 20
126.8890553285228
 30
0.0
 10
238.4269832529826
 20
126.9098764319184
 30
0.0
 10
238.4273929193247
 20
126.9100450120477
 30
0.0
  0
SPLINE
  5
92
330
1F
100
AcDbEntity
  8
0
  6
SLD-Сплошная
 62
     7
370
    25
100
AcDbSpline
210
0.0
220
0.0
230
1.0
 70
     8
 71
     3
 72
    14
 73
    10
 74
     0
 42
0.00000001
 43
0.00000001
 40
0.0
 40
0.0
 40
0.0
 40
0.0
 40
0.25
 40
0.25
 40
0.5
 40
0.5
 40
0.75
 40
0.75
 40
1.0
 40
1.0
 40
1.0
 40
1.0
 10
245.2761923900699
 20
124.5622059887652
 30
0.0
 10
245.276190227447
 20
125.2772923891808
 30
0.0
 10
245.2761880647566
 20
126.4052696807713
 30
0.0
 10
245.2761837392203
 20
129.3705641142035
 30
0.0
 10
245.2761815763741
 20
131.2073406021032
 30
0.0
 10
245.2761772505211
 20
135.3995403216231
 30
0.0
 10
245.2761750875142
 20
137.7541992010499
 30
0.0
 10
245.2761707613512
 20
142.7375618173489
 30
0.0
 10
245.2761685981952
 20
145.3653569514822
 30
0.0
 10
245.2761664349783
 20
147.9936312916151
 30
0.0
  0
SPLINE
  5
93
330
1F
100
AcDbEntity
  8
0
  6
SLD-Сплошная
 62
     7
370
    25
100
AcDbSpline
210
0.0
220
0.0
230
1.0
 70
     8
 71
     3
 72
    15
 73
    11
 74
     0
 42
0.00000001
 43
0.00000001
 40
0.0
 40
0.0
 40
0.0
 40
0.0
 40
0.0976985828816814
 40
0.1957892262349318
 40
0.2949700121657502
 40
0.3959279163886645
 40
0.4993247720733842
 40
0.6690282640360972
 40
0.8349917954026564
 40
0.9999999999999999
 40
0.9999999999999999
 40
0.9999999999999999
 40
0.9999999999999999
 10
243.5515258658999
 20
125.5433449127669
 30
0.0
 10
243.5570316676854
 20
125.5132562698872
 30
0.0
 10
243.5680653658169
 20
125.4529582396177
 30
0.0
 10
243.5897710124534
 20
125.3638725918487
 30
0.0
 10
243.6148337259783
 20
125.2761045625532
 30
0.0
 10
243.6433373884445
 20
125.1898777656559
 30
0.0
 10
243.6812734807765
 20
125.0880820282583
 30
0.0
 10
243.7290545440763
 20
124.9762829484903
 30
0.0
 10
243.7848293527049
 20
124.8605177564637
 30
0.0
 10
243.8186103198269
 20
124.7960381240915
 30
0.0
 10
243.8354520501883
 20
124.7638913658802
 30
0.0
  0
SPLINE
  5
94
330
1F
100
AcDbEntity
  8
0
  6
SLD-Сплошная
 62
     7
370
    25
100
AcDbSpline
210
0.0
220
0.0
230
1.0
 70
     8
 71
     3
 72
     9
 73
     5
 74
     0
 42
0.00000001
 43
0.00000001
 40
0.0
 40
0.0
 40
0.0
 40
0.0
 40
0.4998642944037771
 40
0.9999999999999999
 40
0.9999999999999999
 40
0.9999999999999999
 40
0.9999999999999999
 10
243.5515258661725
 20
125.5433449128129
 30
0.0
 10
243.5441293594995
 20
125.5935366290518
 30
0.0
 10
243.529332330074
 20
125.6939473141134
 30
0.0
 10
243.5272219110288
 20
125.7954205546706
 30
0.0
 10
243.5261664151105
 20
125.8461709454358
 30
0.0
  0
SPLINE
  5
95
330
1F
100
AcDbEntity
  8
0
  6
SLD-Сплошная
 62
     7
370
    25
100
AcDbSpline
210
0.0
220
0.0
230
1.0
 70
     8
 71
     3
 72
    37
 73
    33
 74
     0
 42
0.00000001
 43
0.00000001
 40
0.0
 40
0.0
 40
0.0
 40
0.0
 40
0.0138479764763516
 40
0.0281644032768942
 40
0.0429491335348689
 40
0.0582020067909375
 40
0.0739228490265117
 40
0.090111472692414
 40
0.1067676767337309
 40
0.1238912466115728
 40
0.1853864437526075
 40
0.243635593720313
 40
0.3205241053071345
 40
0.3795218770609174
 40
0.4326518497145744
 40
0.4976982491071559
 40
0.5338558055298837
 40
0.5632882109137286
 40
0.6249712638084668
 40
0.641292640731803
 40
0.6553070792180292
 40
0.6864612208514312
 40
0.742919383152889
 40
0.7829715118070949
 40
0.806802729664083
 40
0.8364151347370786
 40
0.8725459888353636
 40
0.9096148908430256
 40
0.9291475553783384
 40
0.9469420178035333
 40
0.9708882283082154
 40
1.0
 40
1.0
 40
1.0
 40
1.0
 10
243.5261664144974
 20
147.9936312914001
 30
0.0
 10
243.5261664139017
 20
147.8507425039628
 30
0.0
 10
243.5261664126903
 20
147.5601312771165
 30
0.0
 10
243.5261664429445
 20
147.1171354410993
 30
0.0
 10
243.5261666252554
 20
146.6600169312277
 30
0.0
 10
243.5261671565151
 20
146.1890203412792
 30
0.0
 10
243.5261683045632
 20
145.7044281384985
 30
0.0
 10
243.5261704452653
 20
145.2065687272289
 30
0.0
 10
243.5261739141311
 20
144.6957980592777
 30
0.0
 10
243.5261844322016
 20
143.7254130550545
 30
0.0
 10
243.5262066385719
 20
142.3437020573677
 30
0.0
 10
243.5262156221467
 20
140.4003937576379
 30
0.0
 10
243.5262051876841
 20
138.5408687303757
 30
0.0
 10
243.5261779146238
 20
136.806983251916
 30
0.0
 10
243.5261636596913
 20
135.2495735768115
 30
0.0
 10
243.5261667817827
 20
133.9675281591366
 30
0.0
 10
243.5261665437544
 20
132.9436047067087
 30
0.0
 10
243.5261739929955
 20
131.9865254488057
 30
0.0
 10
243.5261719014145
 20
131.2240815975966
 30
0.0
 10
243.5261869749361
 20
130.6128303464593
 30
0.0
 10
243.5261995112781
 20
130.2144282663107
 30
0.0
 10
243.526201948452
 20
129.578714895019
 30
0.0
 10
243.5262193210629
 20
128.8455463139124
 30
0.0
 10
243.5262109478236
 20
128.2216315713665
 30
0.0
 10
243.526204635605
 20
127.7739974351873
 30
0.0
 10
243.5261919747807
 20
127.3743629181405
 30
0.0
 10
243.5261805177928
 20
126.9588576584631
 30
0.0
 10
243.5261837759488
 20
126.6318526868394
 30
0.0
 10
243.5261712470848
 20
126.3935825016702
 30
0.0
 10
243.5261667400682
 20
126.2132061621395
 30
0.0
 10
243.526166427325
 20
126.0246664388036
 30
0.0
 10
243.5261664191407
 20
125.9094097870417
 30
0.0
 10
243.5261664146502
 20
125.8461709454358
 30
0.0
  0
SPLINE
  5
96
330
1F
100
AcDbEntity
  8
0
  6
SLD-Сплошная
 62
     7
370
    25
100
AcDbSpline
210
0.0
220
0.0
230
1.0
 70
     8
 71
     3
 72
    40
 73
    36
 74
     0
 42
0.00000001
 43
0.00000001
 40
0.0
 40
0.0
 40
0.0
 40
0.0
 40
0.0116405160467401
 40
0.0233582616784637
 40
0.0351531012014388
 40
0.0470248961071998
 40
0.058973505073582
 40
0.0709987839676376
 40
0.0804549915555546
 40
0.0896283579442357
 40
0.1073743164678045
 40
0.1428208228003721
 40
0.1987711178113175
 40
0.2500188817276643
 40
0.3003686512194448
 40
0.3280380916569462
 40
0.3566670338839399
 40
0.4110956486214966
 40
0.4637980914030453
 40
0.5145807713529026
 40
0.5711762273743026
 40
0.6063703692263351
 40
0.6790370504925413
 40
0.7405063741246733
 40
0.7855080164589686
 40
0.8067079653461728
 40
0.8316018755412634
 40
0.8542692064790647
 40
0.8728322243839575
 40
0.8927626203973957
 40
0.9262850665748379
 40
0.9421099144406919
 40
0.9558015042948372
 40
0.9779254514660635
 40
1.0
 40
1.0
 40
1.0
 40
1.0
 10
243.5261664155082
 20
170.5936312925926
 30
0.0
 10
243.5261664145044
 20
170.5928791545541
 30
0.0
 10
243.5261664124901
 20
170.5913698883797
 30
0.0
 10
243.5261664581928
 20
170.5791069939221
 30
0.0
 10
243.5261667339122
 20
170.5593563485119
 30
0.0
 10
243.5261675549571
 20
170.5312458854968
 30
0.0
 10
243.5261692916893
 20
170.4948550920983
 30
0.0
 10
243.5261724379496
 20
170.4531908095096
 30
0.0
 10
243.5261764888838
 20
170.4089451329774
 30
0.0
 10
243.5261762220778
 20
170.3517278200927
 30
0.0
 10
243.526192959484
 20
170.2338980239444
 30
0.0
 10
243.5262345209316
 20
169.9764434610817
 30
0.0
 10
243.5262867657015
 20
169.5242105338976
 30
0.0
 10
243.5263178898755
 20
168.878275286269
 30
0.0
 10
243.5262869147009
 20
168.2394719860917
 30
0.0
 10
243.5262691509069
 20
167.6431993175824
 30
0.0
 10
243.5262230414614
 20
166.9762804265032
 30
0.0
 10
243.5261763024866
 20
166.0700357964238
 30
0.0
 10
243.5261641398947
 20
164.8909127060657
 30
0.0
 10
243.5261670659292
 20
163.5731757736761
 30
0.0
 10
243.5261669800077
 20
162.2992480145617
 30
0.0
 10
243.5261996193167
 20
160.7411394046824
 30
0.0
 10
243.5262592174338
 20
159.0384185916967
 30
0.0
 10
243.5263219167818
 20
157.1316196736926
 30
0.0
 10
243.5262990766988
 20
155.7247995541176
 30
0.0
 10
243.5262797936686
 20
154.7027284963262
 30
0.0
 10
243.5262507979586
 20
153.9227687067222
 30
0.0
 10
243.5262311000657
 20
153.1648932748825
 30
0.0
 10
243.5262072060632
 20
152.4587732508518
 30
0.0
 10
243.5262105300608
 20
151.62138022721
 30
0.0
 10
243.5261869455462
 20
150.8105664706298
 30
0.0
 10
243.5261709215099
 20
150.069557754739
 30
0.0
 10
243.5261671357086
 20
149.4610246556033
 30
0.0
 10
243.5261663629722
 20
148.7773333582892
 30
0.0
 10
243.5261663981152
 20
148.2546705977588
 30
0.0
 10
243.526166415667
 20
147.9936312956256
 30
0.0
  0
LINE
  5
97
330
1F
100
AcDbEntity
  8
0
  6
SLD-Сплошная
 62
     7
370
    25
100
AcDbLine
 10
245.2761664145
 20
147.993631291
 30
0.0
 11
245.2761664143
 21
172.3436312915
 31
0.0
  0
SPLINE
  5
98
330
1F
100
AcDbEntity
  8
0
  6
SLD-Сплошная
 62
     7
370
    25
100
AcDbSpline
210
0.0
220
0.0
230
1.0
 70
    24
 71
     3
 72
    31
 73
    27
 74
     0
 42
0.00000001
 43
0.00000001
 40
0.0
 40
0.0
 40
0.0
 40
0.0
 40
0.0139243390033393
 40
0.0278264258898022
 40
0.0417128638338066
 40
0.0555902783481055
 40
0.0694653078718839
 40
0.0833445942665384
 40
0.0972347732869479
 40
0.1111424650964567
 40
0.1250742648930585
 40
0.1875686330595253
 40
0.2501008587636404
 40
0.3125952269308704
 40
0.3751274526342615
 40
0.5000027183469602
 40
0.6248779840596588
 40
0.6873723522279105
 40
0.7499045779302683
 40
0.812398946098595
 40
0.8749311718008558
 40
0.8999715403454898
 40
0.9249599078683536
 40
0.949934961010896
 40
0.9749354482240782
 40
1.0
 40
1.0
 40
1.0
 40
1.0
 10
249.4261664153711
 20
147.9936312916432
 30
0.0
 10
249.4261664153711
 20
147.8358790841554
 30
0.0
 10
249.4261664153711
 20
147.5206267687991
 30
0.0
 10
249.4261664153711
 20
147.0482746588632
 30
0.0
 10
249.4261664153711
 20
146.5769019864726
 30
0.0
 10
249.4261664153711
 20
146.1065089864771
 30
0.0
 10
249.4261664153711
 20
145.6370961768961
 30
0.0
 10
249.4261664153711
 20
145.1686631907606
 30
0.0
 10
249.4261664153711
 20
144.7012129110229
 30
0.0
 10
249.4261664153711
 20
144.2347360604452
 30
0.0
 10
249.4261664153711
 20
143.2288632837741
 30
0.0
 10
249.4261664153711
 20
141.6988171740023
 30
0.0
 10
249.4261664153711
 20
139.6957515315699
 30
0.0
 10
249.4261664153711
 20
137.7713686021347
 30
0.0
 10
249.4261664153711
 20
135.3400090941529
 30
0.0
 10
249.4261664153711
 20
132.5857261942065
 30
0.0
 10
249.4261664153711
 20
130.3270836050924
 30
0.0
 10
249.4261664153711
 20
128.8691206668572
 30
0.0
 10
249.426166415371
 20
127.9598436807865
 30
0.0
 10
249.426166415371
 20
127.2421621269902
 30
0.0
 10
249.426166415371
 20
126.8289319069168
 30
0.0
 10
249.426166415371
 20
126.6045302412692
 30
0.0
 10
249.426166415371
 20
126.4878229097926
 30
0.0
 10
249.426166415371
 20
126.4050636648686
 30
0.0
 10
249.426166415371
 20
126.3532434705145
 30
0.0
 10
249.426166415371
 20
126.3468380819619
 30
0.0
 10
249.426166415371
 20
126.3436312894324
 30
0.0
  0
SPLINE
  5
99
330
1F
100
AcDbEntity
  8
0
  6
SLD-Сплошная
 62
     7
370
    25
100
AcDbSpline
210
0.0
220
0.0
230
1.0
 70
    24
 71
     3
 72
    31
 73
    27
 74
     0
 42
0.00000001
 43
0.00000001
 40
0.0
 40
0.0
 40
0.0
 40
0.0
 40
0.0139206396570136
 40
0.0278199405455554
 40
0.0417045138121031
 40
0.055580991653102
 40
0.0694560178737263
 40
0.0833362383636168
 40
0.0972282915576775
 40
0.1111387989502545
 40
0.125074355730123
 40
0.1875687090260626
 40
0.2501009198376531
 40
0.3125952731329631
 40
0.3751274839451602
 40
0.5000027199307947
 40
0.6248779559164295
 40
0.6873723092104115
 40
0.7499045200239564
 40
0.8123988740405806
 40
0.8749310841384518
 40
0.8999775417408277
 40
0.9249689461336538
 40
0.9499439933307163
 40
0.974941455308622
 40
1.0
 40
1.0
 40
1.0
 40
1.0
 10
249.426166415371
 20
169.64363129573
 30
0.0
 10
249.426166415371
 20
169.642653446708
 30
0.0
 10
249.426166415371
 20
169.6406992475963
 30
0.0
 10
249.426166415371
 20
169.6247338157966
 30
0.0
 10
249.426166415371
 20
169.5992205580106
 30
0.0
 10
249.426166415371
 20
169.5632279069288
 30
0.0
 10
249.426166415371
 20
169.5170052837806
 30
0.0
 10
249.426166415371
 20
169.4604854074057
 30
0.0
 10
249.426166415371
 20
169.3936883706475
 30
0.0
 10
249.426166415371
 20
169.3166014647355
 30
0.0
 10
249.426166415371
 20
169.1278855580348
 30
0.0
 10
249.426166415371
 20
168.745204536201
 30
0.0
 10
249.426166415371
 20
168.0277527486139
 30
0.0
 10
249.4261664153711
 20
167.1183445333896
 30
0.0
 10
249.4261664153711
 20
165.6604531351062
 30
0.0
 10
249.4261664153711
 20
163.4015364396681
 30
0.0
 10
249.4261664153711
 20
160.6475869286911
 30
0.0
 10
249.4261664153711
 20
158.216274605184
 30
0.0
 10
249.4261664153711
 20
156.2923079779041
 30
0.0
 10
249.4261664153711
 20
154.2888410893321
 30
0.0
 10
249.4261664153711
 20
152.6364920029611
 30
0.0
 10
249.4261664153711
 20
151.3808606134013
 30
0.0
 10
249.4261664153711
 20
150.5388353224835
 30
0.0
 10
249.4261664153711
 20
149.6934424408515
 30
0.0
 10
249.4261664153711
 20
148.8446604961078
 30
0.0
 10
249.4261664153711
 20
148.2775383771205
 30
0.0
 10
249.4261664153711
 20
147.9936312916432
 30
0.0
  0
LINE
  5
9A
330
1F
100
AcDbEntity
  8
0
  6
SLD-Сплошная
 62
     7
370
    25
100
AcDbLine
 10
261.6435464804
 20
149.3311401821
 30
0.0
 11
261.6435464804
 21
159.3186312916
 31
0.0
  0
LINE
  5
9B
330
1F
100
AcDbEntity
  8
0
  6
SLD-Сплошная
 62
     7
370
    25
100
AcDbLine
 10
268.6435464804
 20
149.3311401821
 30
0.0
 11
261.6435464804
 21
149.3311401821
 31
0.0
  0
LINE
  5
9C
330
1F
100
AcDbEntity
  8
0
  6
SLD-Сплошная
 62
     7
370
    25
100
AcDbLine
 10
268.6435464804
 20
146.6561224012
 30
0.0
 11
268.6435464804
 21
149.3311401821
 31
0.0
  0
LINE
  5
9D
330
1F
100
AcDbEntity
  8
0
  6
SLD-Сплошная
 62
     7
370
    25
100
AcDbLine
 10
261.6435464804
 20
146.6561224012
 30
0.0
 11
268.6435464804
 21
146.6561224012
 31
0.0
  0
LINE
  5
9E
330
1F
100
AcDbEntity
  8
0
  6
SLD-Сплошная
 62
     7
370
    25
100
AcDbLine
 10
261.6435464804
 20
129.0811401821
 30
0.0
 11
261.6435464804
 21
146.6561224012
 31
0.0
  0
LINE
  5
9F
330
1F
100
AcDbEntity
  8
0
  6
SLD-Сплошная
 62
     7
370
    25
100
AcDbLine
 10
268.6435464804
 20
129.0811401821
 30
0.0
 11
261.6435464804
 21
129.0811401821
 31
0.0
  0
LINE
  5
A0
330
1F
100
AcDbEntity
  8
0
  6
SLD-Сплошная
 62
     7
370
    25
100
AcDbLine
 10
268.6435464804
 20
127.7436312916
 30
0.0
 11
268.6435464804
 21
129.0811401821
 31
0.0
  0
LINE
  5
A1
330
1F
100
AcDbEntity
  8
0
  6
SLD-Сплошная
 62
     7
370
    25
100
AcDbLine
 10
261.6435464804
 20
127.7436312916
 30
0.0
 11
268.6435464804
 21
127.7436312916
 31
0.0
  0
LINE
  5
A2
330
1F
100
AcDbEntity
  8
0
  6
SLD-Сплошная
 62
     7
370
    25
100
AcDbLine
 10
261.6435464804
 20
125.3436312916
 30
0.0
 11
261.6435464804
 21
127.7436312916
 31
0.0
  0
LINE
  5
A3
330
1F
100
AcDbEntity
  8
0
  6
SLD-Сплошная
 62
     7
370
    25
100
AcDbLine
 10
258.6435464804
 20
159.3186312916
 30
0.0
 11
258.6435464804
 21
125.3436312916
 31
0.0
  0
LINE
  5
A4
330
1F
100
AcDbEntity
  8
0
  6
SLD-Сплошная
 62
     7
370
    25
100
AcDbLine
 10
268.6435464804
 20
138.7346566954
 30
0.0
 11
281.6435464804
 21
138.7346566954
 31
0.0
  0
LINE
  5
A5
330
1F
100
AcDbEntity
  8
0
  6
SLD-Сплошная
 62
     7
370
    25
100
AcDbLine
 10
281.6435464804
 20
138.7346566954
 30
0.0
 11
281.6435464804
 21
137.0026058879
 31
0.0
  0
LINE
  5
A6
330
1F
100
AcDbEntity
  8
0
  6
SLD-Сплошная
 62
     7
370
    25
100
AcDbLine
 10
268.6435464804
 20
137.0026058879
 30
0.0
 11
281.6435464804
 21
137.0026058879
 31
0.0
  0
LINE
  5
A7
330
1F
100
AcDbEntity
  8
0
  6
SLD-Сплошная
 62
     7
370
    25
100
AcDbLine
 10
268.6435464804
 20
137.0026058879
 30
0.0
 11
268.6435464804
 21
129.0811401821
 31
0.0
  0
LINE
  5
A8
330
1F
100
AcDbEntity
  8
0
  6
SLD-Сплошная
 62
     7
370
    25
100
AcDbLine
 10
268.6435464804
 20
146.6561224012
 30
0.0
 11
268.6435464804
 21
138.7346566954
 31
0.0
  0
LINE
  5
A9
330
1F
100
AcDbEntity
  8
0
  6
SLD-Сплошная
 62
     7
370
    25
100
AcDbLine
 10
281.6435464804
 20
158.9846566954
 30
0.0
 11
281.6435464804
 21
157.2526058879
 31
0.0
  0
LINE
  5
AA
330
1F
100
AcDbEntity
  8
0
  6
SLD-Сплошная
 62
     7
370
    25
100
AcDbLine
 10
268.6435464804
 20
157.2526058879
 30
0.0
 11
281.6435464804
 21
157.2526058879
 31
0.0
  0
LINE
  5
AB
330
1F
100
AcDbEntity
  8
0
  6
SLD-Сплошная
 62
     7
370
    25
100
AcDbLine
 10
261.6435464804
 20
166.9061224012
 30
0.0
 11
268.6435464804
 21
166.9061224012
 31
0.0
  0
LINE
  5
AC
330
1F
100
AcDbEntity
  8
0
  6
SLD-Сплошная
 62
     7
370
    25
100
AcDbLine
 10
268.6435464804
 20
158.9846566954
 30
0.0
 11
268.6435464804
 21
166.9061224012
 31
0.0
  0
LINE
  5
AD
330
1F
100
AcDbEntity
  8
0
  6
SLD-Сплошная
 62
     7
370
    25
100
AcDbLine
 10
268.6435464804
 20
158.9846566954
 30
0.0
 11
281.6435464804
 21
158.9846566954
 31
0.0
  0
LINE
  5
AE
330
1F
100
AcDbEntity
  8
0
  6
SLD-Сплошная
 62
     7
370
    25
100
AcDbLine
 10
268.6435464804
 20
157.2526058879
 30
0.0
 11
268.6435464804
 21
149.3311401821
 31
0.0
  0
LINE
  5
AF
330
1F
100
AcDbEntity
  8
0
  6
SLD-Сплошная
 62
     7
370
    25
100
AcDbLine
 10
261.6435464804
 20
168.2436312916
 30
0.0
 11
261.6435464804
 21
170.6436312916
 31
0.0
  0
LINE
  5
B0
330
1F
100
AcDbEntity
  8
0
  6
SLD-Сплошная
 62
     7
370
    25
100
AcDbLine
 10
268.6435464804
 20
168.2436312916
 30
0.0
 11
261.6435464804
 21
168.2436312916
 31
0.0
  0
LINE
  5
B1
330
1F
100
AcDbEntity
  8
0
  6
SLD-Сплошная
 62
     7
370
    25
100
AcDbLine
 10
268.6435464804
 20
166.9061224012
 30
0.0
 11
268.6435464804
 21
168.2436312916
 31
0.0
  0
LINE
  5
B2
330
1F
100
AcDbEntity
  8
0
  6
SLD-Сплошная
 62
     7
370
    25
100
AcDbLine
 10
261.6435464804
 20
159.3186312916
 30
0.0
 11
261.6435464804
 21
166.9061224012
 31
0.0
  0
LINE
  5
B3
330
1F
100
AcDbEntity
  8
0
  6
SLD-Сплошная
 62
     7
370
    25
100
AcDbLine
 10
258.6435464804
 20
170.6436312916
 30
0.0
 11
258.6435464804
 21
159.3186312916
 31
0.0
  0
LINE
  5
B4
330
1F
100
AcDbEntity
  8
0
  6
SLD-Сплошная
 62
     7
370
    25
100
AcDbLine
 10
281.6435464804
 20
156.839743912
 30
0.0
 11
268.6435464804
 21
156.839743912
 31
0.0
  0
LINE
  5
B5
330
1F
100
AcDbEntity
  8
0
  6
SLD-Сплошная
 62
     7
370
    25
100
AcDbLine
 10
281.6435464804
 20
139.1475186713
 30
0.0
 11
281.6435464804
 21
156.839743912
 31
0.0
  0
LINE
  5
B6
330
1F
100
AcDbEntity
  8
0
  6
SLD-Сплошная
 62
     7
370
    25
100
AcDbLine
 10
268.6435464804
 20
139.1475186713
 30
0.0
 11
281.6435464804
 21
139.1475186713
 31
0.0
  0
LINE
  5
B7
330
1F
100
AcDbEntity
  8
0
  6
SLD-Сплошная
 62
     7
370
    25
100
AcDbLine
 10
281.6435464804
 20
139.1475186713
 30
0.0
 11
281.6435464804
 21
138.7346566954
 31
0.0
  0
LINE
  5
B8
330
1F
100
AcDbEntity
  8
0
  6
SLD-Сплошная
 62
     7
370
    25
100
AcDbLine
 10
281.6435464804
 20
157.2526058879
 30
0.0
 11
281.6435464804
 21
156.839743912
 31
0.0
  0
LINE
  5
B9
330
1F
100
AcDbEntity
  8
0
  6
SLD-Сплошная
 62
     7
370
    25
100
AcDbLine
 10
268.6435464804
 20
128.5693552434
 30
0.0
 11
281.6435464804
 21
128.5693552434
 31
0.0
  0
LINE
  5
BA
330
1F
100
AcDbEntity
  8
0
  6
SLD-Сплошная
 62
     7
370
    25
100
AcDbLine
 10
281.6435464804
 20
137.0026058879
 30
0.0
 11
281.6435464804
 21
128.5693552434
 31
0.0
  0
LINE
  5
BB
330
1F
100
AcDbEntity
  8
0
  6
SLD-Сплошная
 62
     7
370
    25
100
AcDbLine
 10
281.6435464804
 20
167.4179073399
 30
0.0
 11
268.6435464804
 21
167.4179073399
 31
0.0
  0
LINE
  5
BC
330
1F
100
AcDbEntity
  8
0
  6
SLD-Сплошная
 62
     7
370
    25
100
AcDbLine
 10
281.6435464804
 20
167.4179073399
 30
0.0
 11
281.6435464804
 21
158.9846566954
 31
0.0
  0
SPLINE
  5
BD
330
1F
100
AcDbEntity
  8
0
  6
SLD-Сплошная
 62
     7
370
    25
100
AcDbSpline
210
0.0
220
0.0
230
1.0
 70
    24
 71
     3
 72
    10
 73
     6
 74
     0
 42
0.00000001
 43
0.00000001
 40
0.0
 40
0.0
 40
0.0
 40
0.0
 40
0.5
 40
0.5
 40
1.0
 40
1.0
 40
1.0
 40
1.0
 10
245.2841915377179
 20
124.5433449126539
 30
0.0
 10
245.5200566920537
 20
124.5433449126432
 30
0.0
 10
245.7078062578626
 20
124.5433449126431
 30
0.0
 10
245.948128086966
 20
124.5433449126432
 30
0.0
 10
246.029089146921
 20
124.5433449126432
 30
0.0
 10
246.0964447067958
 20
124.5433449126432
 30
0.0
  0
SPLINE
  5
BE
330
1F
100
AcDbEntity
  8
0
  6
SLD-Сплошная
 62
     7
370
    25
100
AcDbSpline
210
0.0
220
0.0
230
1.0
 70
     8
 71
     3
 72
     8
 73
     4
 74
     0
 42
0.00000001
 43
0.00000001
 40
0.0
 40
0.0
 40
0.0
 40
0.0
 40
1.0
 40
1.0
 40
1.0
 40
1.0
 10
245.2841915377179
 20
124.5433449126539
 30
0.0
 10
245.281904164937
 20
124.5433453522801
 30
0.0
 10
245.2791722720515
 20
124.5478915559839
 30
0.0
 10
245.2761923900517
 20
124.5622071647945
 30
0.0
  0
SPLINE
  5
BF
330
1F
100
AcDbEntity
  8
0
  6
SLD-Сплошная
 62
     7
370
    25
100
AcDbSpline
210
0.0
220
0.0
230
1.0
 70
    24
 71
     3
 72
    18
 73
    14
 74
     0
 42
0.00000001
 43
0.00000001
 40
0.0
 40
0.0
 40
0.0
 40
0.0
 40
0.25
 40
0.25
 40
0.5
 40
0.5
 40
0.75
 40
0.75
 40
0.875
 40
0.875
 40
0.9375
 40
0.9375
 40
1.0
 40
1.0
 40
1.0
 40
1.0
 10
244.1882806525043
 20
124.5433449126432
 30
0.0
 10
244.2119003619505
 20
124.5433449126432
 30
0.0
 10
244.2413557640909
 20
124.5433449126525
 30
0.0
 10
244.319144314734
 20
124.5433449126769
 30
0.0
 10
244.3670479579278
 20
124.5433449126921
 30
0.0
 10
244.4970844940489
 20
124.5433449127127
 30
0.0
 10
244.5772183779145
 20
124.5433449127176
 30
0.0
 10
244.7588430709672
 20
124.5433449127069
 30
0.0
 10
244.8293157652178
 20
124.5433449127001
 30
0.0
 10
244.970125868259
 20
124.5433449126874
 30
0.0
 10
245.0233824772333
 20
124.5433449126828
 30
0.0
 10
245.1439164667752
 20
124.5433449126758
 30
0.0
 10
245.2134404145604
 20
124.5433449126734
 30
0.0
 10
245.2841915377179
 20
124.5433449126539
 30
0.0
  0
SPLINE
  5
C0
330
1F
100
AcDbEntity
  8
0
  6
SLD-Сплошная
 62
     7
370
    25
100
AcDbSpline
210
0.0
220
0.0
230
1.0
 70
     8
 71
     3
 72
    12
 73
     8
 74
     0
 42
0.00000001
 43
0.00000001
 40
0.0
 40
0.0
 40
0.0
 40
0.0
 40
0.1260379726948468
 40
0.2603509092812301
 40
0.4025471028748893
 40
0.6265885607447647
 40
1.0
 40
1.0
 40
1.0
 40
1.0
 10
243.8354271432402
 20
124.7638744560897
 30
0.0
 10
243.8461596273852
 20
124.7454885735209
 30
0.0
 10
243.8683292318804
 20
124.7075096918999
 30
0.0
 10
243.9100650087288
 20
124.6592955276529
 30
0.0
 10
243.9672471401795
 20
124.6100433898242
 30
0.0
 10
244.0562061943257
 20
124.5580109363575
 30
0.0
 10
244.1374823865568
 20
124.5489857224023
 30
0.0
 10
244.1882804663121
 20
124.5433449126432
 30
0.0
  0
LINE
  5
C1
330
1F
100
AcDbEntity
  8
0
  6
SLD-Сплошная
 62
     7
370
    25
100
AcDbLine
 10
244.1882806525
 20
124.5433449126
 30
0.0
 11
242.9261664169
 21
124.5433449122
 31
0.0
  0
SPLINE
  5
C2
330
1F
100
AcDbEntity
  8
0
  6
SLD-Сплошная
 62
     7
370
    25
100
AcDbSpline
210
0.0
220
0.0
230
1.0
 70
     8
 71
     3
 72
    10
 73
     6
 74
     0
 42
0.00000001
 43
0.00000001
 40
0.5
 40
0.5
 40
0.5
 40
0.5
 40
0.75
 40
0.75
 40
1.0
 40
1.0
 40
1.0
 40
1.0
 10
239.4261664146674
 20
124.5433449127595
 30
0.0
 10
239.426166414675
 20
124.5433449127939
 30
0.0
 10
239.8033722521471
 20
124.5433449127148
 30
0.0
 10
241.0992131094046
 20
124.5433449123745
 30
0.0
 10
242.0098685579602
 20
124.5433449121152
 30
0.0
 10
242.9261664169003
 20
124.5433449122417
 30
0.0
  0
ARC
  5
C3
330
1F
100
AcDbEntity
  8
0
  6
SLD-Сплошная
 62
     7
370
    25
100
AcDbCircle
 10
190.7296852904
 20
203.7895355166
 30
0.0
 40
34.00000000000001
100
AcDbArc
 50
300.1611623719
 51
326.9433647162
  0
LINE
  5
C4
330
1F
100
AcDbEntity
  8
0
  6
SLD-Сплошная
 62
     7
370
    25
100
AcDbLine
 10
219.2261664148
 20
185.2436312916
 30
0.0
 11
221.9261664154
 21
185.2436312916
 31
0.0
  0
LINE
  5
C5
330
1F
100
AcDbEntity
  8
0
  6
SLD-Сплошная
 62
     7
370
    25
100
AcDbLine
 10
221.9261664154
 20
171.8661771836
 30
0.0
 11
221.9261664154
 21
185.2436312916
 31
0.0
  0
LINE
  5
C6
330
1F
100
AcDbEntity
  8
0
  6
SLD-Сплошная
 62
     7
370
    25
100
AcDbLine
 10
143.9261664154
 20
120.1045205137
 30
0.0
 11
143.9261664154
 21
118.2936312916
 31
0.0
  0
LINE
  5
C7
330
1F
100
AcDbEntity
  8
0
  6
SLD-Сплошная
 62
     7
370
    25
100
AcDbLine
 10
135.4261664154
 20
118.2936312916
 30
0.0
 11
135.4261664154
 21
120.1045205134
 31
0.0
  0
LINE
  5
C8
330
1F
100
AcDbEntity
  8
0
  6
SLD-Сплошная
 62
     7
370
    25
100
AcDbLine
 10
143.9261664154
 20
118.2936312916
 30
0.0
 11
143.9261664157
 21
115.2936312916
 31
0.0
  0
LINE
  5
C9
330
1F
100
AcDbEntity
  8
0
  6
SLD-Сплошная
 62
     7
370
    25
100
AcDbLine
 10
135.4261664158
 20
115.2936312916
 30
0.0
 11
135.4261664154
 21
118.2936312916
 31
0.0
  0
LINE
  5
CA
330
1F
100
AcDbEntity
  8
0
  6
SLD-Сплошная
 62
     7
370
    25
100
AcDbLine
 10
268.6435464804
 20
127.7436312916
 30
0.0
 11
281.6435464804
 21
127.7436312916
 31
0.0
  0
LINE
  5
CB
330
1F
100
AcDbEntity
  8
0
  6
SLD-Сплошная
 62
     7
370
    25
100
AcDbLine
 10
281.6435464804
 20
128.5693552434
 30
0.0
 11
281.6435464804
 21
127.7436312916
 31
0.0
  0
LINE
  5
CC
330
1F
100
AcDbEntity
  8
0
  6
SLD-Сплошная
 62
     7
370
    25
100
AcDbLine
 10
268.6435464804
 20
168.2436312916
 30
0.0
 11
281.6435464804
 21
168.2436312916
 31
0.0
  0
LINE
  5
CD
330
1F
100
AcDbEntity
  8
0
  6
SLD-Сплошная
 62
     7
370
    25
100
AcDbLine
 10
281.6435464804
 20
168.2436312916
 30
0.0
 11
281.6435464804
 21
167.4179073399
 31
0.0
  0
LINE
  5
CE
330
1F
100
AcDbEntity
  8
0
  6
SLD-Сплошная
 62
     7
370
    25
100
AcDbLine
 10
134.5261664153
 20
138.2436312898
 30
0.0
 11
134.5261664153
 21
131.2489450566
 31
0.0
  0
LINE
  5
CF
330
1F
100
AcDbEntity
  8
0
  6
SLD-Сплошная
 62
     7
370
    25
100
AcDbLine
 10
134.5261664153
 20
131.2489450566
 30
0.0
 11
134.5261664153
 21
131.2436312898
 31
0.0
  0
LINE
  5
D0
330
1F
100
AcDbEntity
  8
0
  6
SLD-Сплошная
 62
     7
370
    25
100
AcDbLine
 10
165.6261664153
 20
190.2795622967
 30
0.0
 11
165.6261664153
 21
191.4936312898
 31
0.0
  0
LINE
  5
D1
330
1F
100
AcDbEntity
  8
0
  6
SLD-Сплошная
 62
     7
370
    25
100
AcDbLine
 10
165.6261664153
 20
190.2795622967
 30
0.0
 11
179.6261664153
 21
190.2795622967
 31
0.0
  0
LINE
  5
D2
330
1F
100
AcDbEntity
  8
0
  6
SLD-Сплошная
 62
     7
370
    25
100
AcDbLine
 10
179.6261664153
 20
190.2795622967
 30
0.0
 11
179.6261664153
 21
189.6486861508
 31
0.0
  0
LINE
  5
D3
330
1F
100
AcDbEntity
  8
0
  6
SLD-Сплошная
 62
     7
370
    25
100
AcDbLine
 10
165.6261664153
 20
189.6486861508
 30
0.0
 11
179.6261664153
 21
189.6486861508
 31
0.0
  0
LINE
  5
D4
330
1F
100
AcDbEntity
  8
0
  6
SLD-Сплошная
 62
     7
370
    25
100
AcDbLine
 10
165.6261664153
 20
176.2050888113
 30
0.0
 11
165.6261664153
 21
189.6486861508
 31
0.0
  0
LINE
  5
D5
330
1F
100
AcDbEntity
  8
0
  6
SLD-Сплошная
 62
     7
370
    25
100
AcDbLine
 10
165.6261664153
 20
176.2050888113
 30
0.0
 11
179.6261664153
 21
176.2050888113
 31
0.0
  0
LINE
  5
D6
330
1F
100
AcDbEntity
  8
0
  6
SLD-Сплошная
 62
     7
370
    25
100
AcDbLine
 10
179.6261664153
 20
174.3258551573
 30
0.0
 11
179.6261664153
 21
176.2050888113
 31
0.0
  0
LINE
  5
D7
330
1F
100
AcDbEntity
  8
0
  6
SLD-Сплошная
 62
     7
370
    25
100
AcDbLine
 10
165.6261664153
 20
174.3258551573
 30
0.0
 11
179.6261664153
 21
174.3258551573
 31
0.0
  0
LINE
  5
D8
330
1F
100
AcDbEntity
  8
0
  6
SLD-Сплошная
 62
     7
370
    25
100
AcDbLine
 10
165.6261664153
 20
151.3547974248
 30
0.0
 11
165.6261664153
 21
174.3258551573
 31
0.0
  0
LINE
  5
D9
330
1F
100
AcDbEntity
  8
0
  6
SLD-Сплошная
 62
     7
370
    25
100
AcDbLine
 10
165.6261664153
 20
151.3547974248
 30
0.0
 11
179.6261664153
 21
151.3547974248
 31
0.0
  0
LINE
  5
DA
330
1F
100
AcDbEntity
  8
0
  6
SLD-Сплошная
 62
     7
370
    25
100
AcDbLine
 10
179.6261664153
 20
148.9450096457
 30
0.0
 11
179.6261664153
 21
151.3547974248
 31
0.0
  0
LINE
  5
DB
330
1F
100
AcDbEntity
  8
0
  6
SLD-Сплошная
 62
     7
370
    25
100
AcDbLine
 10
165.6261664153
 20
148.9450096457
 30
0.0
 11
179.6261664153
 21
148.9450096457
 31
0.0
  0
LINE
  5
DC
330
1F
100
AcDbEntity
  8
0
  6
SLD-Сплошная
 62
     7
370
    25
100
AcDbLine
 10
165.6261664153
 20
125.5352989321
 30
0.0
 11
165.6261664153
 21
148.9450096457
 31
0.0
  0
LINE
  5
DD
330
1F
100
AcDbEntity
  8
0
  6
SLD-Сплошная
 62
     7
370
    25
100
AcDbLine
 10
163.6261664153
 20
125.5352989321
 30
0.0
 11
165.6261664153
 21
125.5352989321
 31
0.0
  0
LINE
  5
DE
330
1F
100
AcDbEntity
  8
0
  6
SLD-Сплошная
 62
     7
370
    25
100
AcDbLine
 10
159.6261664153
 20
124.2015612605
 30
0.0
 11
159.6261664153
 21
191.4936312898
 31
0.0
  0
SPLINE
  5
DF
330
1F
100
AcDbEntity
  8
0
  6
SLD-Сплошная
 62
     7
370
    25
100
AcDbSpline
210
0.0
220
0.0
230
1.0
 70
     8
 71
     3
 72
     8
 73
     4
 74
     0
 42
0.00000001
 43
0.00000001
 40
0.0
 40
0.0
 40
0.0
 40
0.0
 40
1.0
 40
1.0
 40
1.0
 40
1.0
 10
166.6261664153082
 20
126.7725485288123
 30
0.0
 10
166.6170700545009
 20
126.7627687932258
 30
0.0
 10
166.607912809568
 20
126.7521765314941
 30
0.0
 10
166.5988856627769
 20
126.7409793489219
 30
0.0
  0
LWPOLYLINE
  5
E0
330
1F
100
AcDbEntity
  8
0
  6
SLD-Сплошная
 62
     7
370
    25
100
AcDbPolyline
 90
        9
 70
   128
 43
0.0
 10
166.5988856628
 20
126.7409793489
 10
166.4773544953
 20
126.5902487162
 10
166.3558065441
 20
126.4395239621
 10
166.2342418098
 20
126.2888050873
 10
166.1126602931
 20
126.1380920927
 10
165.9910619947
 20
125.987384979
 10
165.8694469151
 20
125.8366837472
 10
165.7478150551
 20
125.6859883979
 10
165.6261664153
 20
125.5352989321
  0
LWPOLYLINE
  5
E1
330
1F
100
AcDbEntity
  8
0
  6
SLD-Сплошная
 62
     7
370
    25
100
AcDbPolyline
 90
        9
 70
   128
 43
0.0
 10
166.6261664182
 20
148.565993717
 10
166.5012305172
 20
148.6133775653
 10
166.3762761641
 20
148.6607594404
 10
166.2513033595
 20
148.708139342
 10
166.1263121043
 20
148.7555172697
 10
166.0013023993
 20
148.8028932233
 10
165.8762742452
 20
148.8502672024
 10
165.7512276427
 20
148.8976392069
 10
165.6261664153
 20
148.9450096457
  0
LINE
  5
E2
330
1F
100
AcDbEntity
  8
0
  6
SLD-Сплошная
 62
     7
370
    25
100
AcDbLine
 10
166.6261664182
 20
148.565993717
 30
0.0
 11
166.6261664153
 21
126.7725485288
 31
0.0
  0
LINE
  5
E3
330
1F
100
AcDbEntity
  8
0
  6
SLD-Сплошная
 62
     7
370
    25
100
AcDbLine
 10
179.6261664153
 20
148.9450096457
 30
0.0
 11
179.6261664153
 21
148.565993717
 31
0.0
  0
LINE
  5
E4
330
1F
100
AcDbEntity
  8
0
  6
SLD-Сплошная
 62
     7
370
    25
100
AcDbLine
 10
166.6261664182
 20
148.565993717
 30
0.0
 11
179.6261664153
 21
148.565993717
 31
0.0
  0
LWPOLYLINE
  5
E5
330
1F
100
AcDbEntity
  8
0
  6
SLD-Сплошная
 62
     7
370
    25
100
AcDbPolyline
 90
        9
 70
   128
 43
0.0
 10
165.6261664153
 20
151.3547974248
 10
165.7512314655
 20
151.3791114872
 10
165.8762780681
 20
151.4034265633
 10
166.0013062224
 20
151.4277426529
 10
166.1263159276
 20
151.452059756
 10
166.2513071829
 20
151.4763778724
 10
166.3762799876
 20
151.5006970019
 10
166.501234341
 20
151.5250171444
 10
166.6261664182
 20
151.5493385095
  0
LWPOLYLINE
  5
E6
330
1F
100
AcDbEntity
  8
0
  6
SLD-Сплошная
 62
     7
370
    25
100
AcDbPolyline
 90
        9
 70
   128
 43
0.0
 10
166.6261664182
 20
172.935626252
 10
166.5012305172
 20
173.1094300175
 10
166.3762761641
 20
173.2832265451
 10
166.2513033595
 20
173.4570158338
 10
166.1263121043
 20
173.6307978825
 10
166.0013023993
 20
173.8045726901
 10
165.8762742452
 20
173.9783402556
 10
165.7512276427
 20
174.1521005779
 10
165.6261664153
 20
174.3258551573
  0
LINE
  5
E7
330
1F
100
AcDbEntity
  8
0
  6
SLD-Сплошная
 62
     7
370
    25
100
AcDbLine
 10
166.6261664182
 20
172.935626252
 30
0.0
 11
166.6261664182
 21
151.5493385095
 31
0.0
  0
LINE
  5
E8
330
1F
100
AcDbEntity
  8
0
  6
SLD-Сплошная
 62
     7
370
    25
100
AcDbLine
 10
166.6261664182
 20
151.5493385095
 30
0.0
 11
179.6261664153
 21
151.5493385095
 31
0.0
  0
LINE
  5
E9
330
1F
100
AcDbEntity
  8
0
  6
SLD-Сплошная
 62
     7
370
    25
100
AcDbLine
 10
179.6261664153
 20
151.3547974248
 30
0.0
 11
179.6261664153
 21
151.5493385095
 31
0.0
  0
LINE
  5
EA
330
1F
100
AcDbEntity
  8
0
  6
SLD-Сплошная
 62
     7
370
    25
100
AcDbLine
 10
166.6261664153
 20
126.7725485288
 30
0.0
 11
179.6261664153
 21
126.7725485288
 31
0.0
  0
LINE
  5
EB
330
1F
100
AcDbEntity
  8
0
  6
SLD-Сплошная
 62
     7
370
    25
100
AcDbLine
 10
179.6261664153
 20
126.7725485288
 30
0.0
 11
179.6261664153
 21
148.565993717
 31
0.0
  0
LINE
  5
EC
330
1F
100
AcDbEntity
  8
0
  6
SLD-Сплошная
 62
     7
370
    25
100
AcDbLine
 10
166.6261664182
 20
172.935626252
 30
0.0
 11
179.6261664153
 21
172.935626252
 31
0.0
  0
LINE
  5
ED
330
1F
100
AcDbEntity
  8
0
  6
SLD-Сплошная
 62
     7
370
    25
100
AcDbLine
 10
179.6261664153
 20
151.5493385095
 30
0.0
 11
179.6261664153
 21
172.935626252
 31
0.0
  0
LINE
  5
EE
330
1F
100
AcDbEntity
  8
0
  6
SLD-Сплошная
 62
     7
370
    25
100
AcDbLine
 10
163.6261664153
 20
122.7248120863
 30
0.0
 11
163.6261664153
 21
123.7627490862
 31
0.0
  0
LINE
  5
EF
330
1F
100
AcDbEntity
  8
0
  6
SLD-Сплошная
 62
     7
370
    25
100
AcDbLine
 10
163.6261664153
 20
123.7627490862
 30
0.0
 11
163.6261664153
 21
124.1527798157
 31
0.0
  0
SPLINE
  5
F0
330
1F
100
AcDbEntity
  8
0
  6
SLD-Сплошная
 62
     7
370
    25
100
AcDbSpline
210
0.0
220
0.0
230
1.0
 70
     8
 71
     3
 72
    17
 73
    13
 74
     0
 42
0.00000001
 43
0.00000001
 40
0.0
 40
0.0
 40
0.0
 40
0.0
 40
0.0828352465486447
 40
0.1611871636530578
 40
0.2427909804025839
 40
0.3349855120782484
 40
0.4369685196185056
 40
0.5482627196426318
 40
0.6702904522123988
 40
0.7703634004589306
 40
0.8801013197599884
 40
1.0
 40
1.0
 40
1.0
 40
1.0
 10
182.1275438488719
 20
124.8189009476555
 30
0.0
 10
182.1357770615807
 20
124.7812741490954
 30
0.0
 10
182.15179787711
 20
124.7080570441798
 30
0.0
 10
182.1705539307974
 20
124.6096141873167
 30
0.0
 10
182.1858268262737
 20
124.5223513661902
 30
0.0
 10
182.1940671642438
 20
124.436660140517
 30
0.0
 10
182.1892596827852
 20
124.3439913721004
 30
0.0
 10
182.1609833624051
 20
124.2449293256419
 30
0.0
 10
182.1040408062556
 20
124.1458397588963
 30
0.0
 10
182.0162473206884
 20
124.0523687140888
 30
0.0
 10
181.9005355977253
 20
123.9671335892751
 30
0.0
 10
181.7942834362125
 20
123.9169001261344
 30
0.0
 10
181.7388066787465
 20
123.8906720512261
 30
0.0
  0
SPLINE
  5
F1
330
1F
100
AcDbEntity
  8
0
  6
SLD-Сплошная
 62
     7
370
    25
100
AcDbSpline
210
0.0
220
0.0
230
1.0
 70
     8
 71
     3
 72
    11
 73
     7
 74
     0
 42
0.00000001
 43
0.00000001
 40
0.0
 40
0.0
 40
0.0
 40
0.0
 40
0.2560594990131977
 40
0.5337083216083107
 40
0.794830287594103
 40
1.0
 40
1.0
 40
1.0
 40
1.0
 10
182.1897561688222
 20
124.420080813476
 30
0.0
 10
182.2033735078153
 20
124.3194039571112
 30
0.0
 10
182.2317563140256
 20
124.1095618061957
 30
0.0
 10
182.2577389787855
 20
123.7375180558749
 30
0.0
 10
182.2687191932645
 20
123.4077052618358
 30
0.0
 10
182.261067873013
 20
123.2679561696869
 30
0.0
 10
182.257701269558
 20
123.2064661573751
 30
0.0
  0
LINE
  5
F2
330
1F
100
AcDbEntity
  8
0
  6
SLD-Сплошная
 62
     7
370
    25
100
AcDbLine
 10
182.0591965108
 20
122.3515247259
 30
0.0
 11
182.1224606248
 21
122.4621446023
 31
0.0
  0
SPLINE
  5
F3
330
1F
100
AcDbEntity
  8
0
  6
SLD-Сплошная
 62
     7
370
    25
100
AcDbSpline
210
0.0
220
0.0
230
1.0
 70
     8
 71
     3
 72
    10
 73
     6
 74
     0
 42
0.00000001
 43
0.00000001
 40
0.0
 40
0.0
 40
0.0
 40
0.0
 40
0.5
 40
0.5
 40
1.0
 40
1.0
 40
1.0
 40
1.0
 10
181.6377182681916
 20
125.0963597547353
 30
0.0
 10
181.7566206064729
 20
125.1088156128927
 30
0.0
 10
181.8749966175932
 20
125.0871628528878
 30
0.0
 10
182.053407459267
 20
124.9861191621493
 30
0.0
 10
182.1126525209679
 20
124.9071755201507
 30
0.0
 10
182.1276013128229
 20
124.8189125279532
 30
0.0
  0
LINE
  5
F4
330
1F
100
AcDbEntity
  8
0
  6
SLD-Сплошная
 62
     7
370
    25
100
AcDbLine
 10
163.6261664153
 20
124.1527798157
 30
0.0
 11
163.6261664153
 21
125.5352989321
 31
0.0
  0
LINE
  5
F5
330
1F
100
AcDbEntity
  8
0
  6
SLD-Сплошная
 62
     7
370
    25
100
AcDbLine
 10
163.6261664153
 20
122.0100749343
 30
0.0
 11
163.6261664153
 21
122.7248120863
 31
0.0
  0
LINE
  5
F6
330
1F
100
AcDbEntity
  8
0
  6
SLD-Сплошная
 62
     7
370
    25
100
AcDbLine
 10
182.0174370916
 20
125.082110613
 30
0.0
 11
182.1276013128
 21
124.818912528
 31
0.0
  0
LINE
  5
F7
330
1F
100
AcDbEntity
  8
0
  6
SLD-Сплошная
 62
     7
370
    25
100
AcDbLine
 10
163.6261664153
 20
121.9622312916
 30
0.0
 11
163.6261664153
 21
122.0100749343
 31
0.0
  0
LINE
  5
F8
330
1F
100
AcDbEntity
  8
0
  6
SLD-Сплошная
 62
     7
370
    25
100
AcDbLine
 10
165.6261664153
 20
107.7850151962
 30
0.0
 11
165.6261664153
 21
121.9622312916
 31
0.0
  0
LINE
  5
F9
330
1F
100
AcDbEntity
  8
0
  6
SLD-Сплошная
 62
     7
370
    25
100
AcDbLine
 10
165.6261664153
 20
107.7850151962
 30
0.0
 11
179.6261664153
 21
107.7850151962
 31
0.0
  0
LINE
  5
FA
330
1F
100
AcDbEntity
  8
0
  6
SLD-Сплошная
 62
     7
370
    25
100
AcDbLine
 10
165.6261664153
 20
106.9265605889
 30
0.0
 11
179.6261664153
 21
106.9265605889
 31
0.0
  0
LINE
  5
FB
330
1F
100
AcDbEntity
  8
0
  6
SLD-Сплошная
 62
     7
370
    25
100
AcDbLine
 10
165.6261664153
 20
104.4936312898
 30
0.0
 11
165.6261664153
 21
106.9265605889
 31
0.0
  0
LINE
  5
FC
330
1F
100
AcDbEntity
  8
0
  6
SLD-Сплошная
 62
     7
370
    25
100
AcDbLine
 10
166.282419927
 20
105.7077002829
 30
0.0
 11
179.6261664153
 21
105.7077002829
 31
0.0
  0
LINE
  5
FD
330
1F
100
AcDbEntity
  8
0
  6
SLD-Сплошная
 62
     7
370
    25
100
AcDbLine
 10
179.6261664153
 20
106.9265605889
 30
0.0
 11
179.6261664153
 21
107.7850151962
 31
0.0
  0
LINE
  5
FE
330
1F
100
AcDbEntity
  8
0
  6
SLD-Сплошная
 62
     7
370
    25
100
AcDbLine
 10
159.6261664153
 20
104.4936312898
 30
0.0
 11
159.6261664153
 21
124.2015612605
 31
0.0
  0
LINE
  5
FF
330
1F
100
AcDbEntity
  8
0
  6
SLD-Сплошная
 62
     7
370
    25
100
AcDbLine
 10
166.6261664153
 20
121.9622312916
 30
0.0
 11
166.6261664182
 21
109.625514163
 31
0.0
  0
LWPOLYLINE
  5
100
330
1F
100
AcDbEntity
  8
0
  6
SLD-Сплошная
 62
     7
370
    25
100
AcDbPolyline
 90
        9
 70
   128
 43
0.0
 10
165.6261664153
 20
107.7850151962
 10
165.7512314655
 20
108.0150437618
 10
165.8762780681
 20
108.245081918
 10
166.0013062224
 20
108.4751296634
 10
166.1263159276
 20
108.7051869964
 10
166.2513071829
 20
108.9352539158
 10
166.3762799876
 20
109.1653304201
 10
166.501234341
 20
109.3954165079
 10
166.6261664182
 20
109.625514163
  0
LINE
  5
101
330
1F
100
AcDbEntity
  8
0
  6
SLD-Сплошная
 62
     7
370
    25
100
AcDbLine
 10
179.6261664153
 20
174.3258551573
 30
0.0
 11
179.6261664153
 21
172.935626252
 31
0.0
  0
LINE
  5
102
330
1F
100
AcDbEntity
  8
0
  6
SLD-Сплошная
 62
     7
370
    25
100
AcDbLine
 10
166.6261664182
 20
109.625514163
 30
0.0
 11
179.6261664153
 21
109.625514163
 31
0.0
  0
LINE
  5
103
330
1F
100
AcDbEntity
  8
0
  6
SLD-Сплошная
 62
     7
370
    25
100
AcDbLine
 10
179.6261664153
 20
121.9622312916
 30
0.0
 11
179.6261664153
 21
109.625514163
 31
0.0
  0
LWPOLYLINE
  5
104
330
1F
100
AcDbEntity
  8
0
  6
SLD-Сплошная
 62
     7
370
    25
100
AcDbPolyline
 90
        9
 70
   128
 43
0.0
 10
166.6261664182
 20
187.7782644587
 10
166.5012305172
 20
188.0121010102
 10
166.3762761641
 20
188.245927824
 10
166.2513033595
 20
188.4797448984
 10
166.1263121043
 20
188.7135522321
 10
166.0013023993
 20
188.9473498236
 10
165.8762742452
 20
189.1811376716
 10
165.7512276427
 20
189.4149157744
 10
165.6261664153
 20
189.6486861508
  0
LINE
  5
105
330
1F
100
AcDbEntity
  8
0
  6
SLD-Сплошная
 62
     7
370
    25
100
AcDbLine
 10
166.6261664182
 20
187.7782644587
 30
0.0
 11
166.6261664153
 21
176.2050888113
 31
0.0
  0
LINE
  5
106
330
1F
100
AcDbEntity
  8
0
  6
SLD-Сплошная
 62
     7
370
    25
100
AcDbLine
 10
166.6261664182
 20
187.7782644587
 30
0.0
 11
179.6261664153
 21
187.7782644587
 31
0.0
  0
LINE
  5
107
330
1F
100
AcDbEntity
  8
0
  6
SLD-Сплошная
 62
     7
370
    25
100
AcDbLine
 10
179.6261664153
 20
187.7782644587
 30
0.0
 11
179.6261664153
 21
176.2050888113
 31
0.0
  0
LINE
  5
108
330
1F
100
AcDbEntity
  8
0
  6
SLD-Сплошная
 62
     7
370
    25
100
AcDbLine
 10
179.6261664153
 20
107.7850151962
 30
0.0
 11
179.6261664153
 21
109.625514163
 31
0.0
  0
LINE
  5
109
330
1F
100
AcDbEntity
  8
0
  6
SLD-Сплошная
 62
     7
370
    25
100
AcDbLine
 10
166.6261664153
 20
106.9265605889
 30
0.0
 11
166.6261664153
 21
106.3436312898
 31
0.0
  0
LINE
  5
10A
330
1F
100
AcDbEntity
  8
0
  6
SLD-Сплошная
 62
     7
370
    25
100
AcDbLine
 10
179.6261664153
 20
106.9265605889
 30
0.0
 11
179.6261664153
 21
106.3436312898
 31
0.0
  0
LINE
  5
10B
330
1F
100
AcDbEntity
  8
0
  6
SLD-Сплошная
 62
     7
370
    25
100
AcDbLine
 10
179.6261664153
 20
189.6486861508
 30
0.0
 11
179.6261664153
 21
187.7782644587
 31
0.0
  0
LINE
  5
10C
330
1F
100
AcDbEntity
  8
0
  6
SLD-Сплошная
 62
     7
370
    25
100
AcDbLine
 10
179.6261664153
 20
105.7077002829
 30
0.0
 11
179.6261664153
 21
106.3436312898
 31
0.0
  0
ARC
  5
10D
330
1F
100
AcDbEntity
  8
0
  6
SLD-Сплошная
 62
     7
370
    25
100
AcDbCircle
 10
72.3868448841
 20
147.9936312929
 30
0.0
 40
24.35090132969984
100
AcDbArc
 50
359.9999999967
 51
180.000000009
  0
SPLINE
  5
10E
330
1F
100
AcDbEntity
  8
0
  6
SLD-Сплошная
 62
     7
370
    25
100
AcDbSpline
210
0.0
220
0.0
230
1.0
 70
     8
 71
     3
 72
    16
 73
    12
 74
     0
 42
0.00000001
 43
0.00000001
 40
0.0
 40
0.0
 40
0.0
 40
0.0
 40
0.3027709887231401
 40
0.4124670403836493
 40
0.5015930114323305
 40
0.5427714339966635
 40
0.5848860575960767
 40
0.6308392014882169
 40
0.6833520658397801
 40
0.8165627545308884
 40
1.0
 40
1.0
 40
1.0
 40
1.0
 10
33.48101883285067
 20
124.0718775699399
 30
0.0
 10
33.47899871062475
 20
124.0675847323267
 30
0.0
 10
33.47624668395519
 20
124.0617365695531
 30
0.0
 10
33.4744228382695
 20
124.040743893225
 30
0.0
 10
33.46928627925023
 20
124.0183555377982
 30
0.0
 10
33.46230938236686
 20
123.9936812119815
 30
0.0
 10
33.45576810230782
 20
123.9720137039609
 30
0.0
 10
33.44792939554029
 20
123.9468787345073
 30
0.0
 10
33.43506299469963
 20
123.9057219057958
 30
0.0
 10
33.41646196179348
 20
123.8443418999446
 30
0.0
 10
33.40755336585612
 20
123.8022034926261
 30
0.0
 10
33.40239252909245
 20
123.7777923011006
 30
0.0
  0
SPLINE
  5
10F
330
1F
100
AcDbEntity
  8
0
  6
SLD-Сплошная
 62
     7
370
    25
100
AcDbSpline
210
0.0
220
0.0
230
1.0
 70
     8
 71
     3
 72
    16
 73
    12
 74
     0
 42
0.00000001
 43
0.00000001
 40
0.0
 40
0.0
 40
0.0
 40
0.0
 40
0.1834267596143808
 40
0.3167796867955138
 40
0.3693477387981839
 40
0.4153328548897813
 40
0.4574681435620085
 40
0.4986739053491529
 40
0.5878861204692586
 40
0.6975954444732063
 40
1.0
 40
1.0
 40
1.0
 40
1.0
 10
110.2233109962456
 20
173.9668715964539
 30
0.0
 10
110.1988869503225
 20
173.9719607161972
 30
0.0
 10
110.1567064002542
 20
173.9807496724091
 30
0.0
 10
110.0930537073856
 20
173.988348611411
 30
0.0
 10
110.0501818962919
 20
173.9930860232156
 30
0.0
 10
110.0240040094133
 20
173.9959987178657
 30
0.0
 10
110.0015270328422
 20
173.9987107240732
 30
0.0
 10
109.9761317304676
 20
174.0022352536472
 30
0.0
 10
109.9535971017923
 20
174.0065275432159
 30
0.0
 10
109.9336062459703
 20
174.0132717738534
 30
0.0
 10
109.9270799875265
 20
174.0130744188428
 30
0.0
 10
109.9222910920731
 20
174.0129296019434
 30
0.0
  0
SPLINE
  5
110
330
1F
100
AcDbEntity
  8
0
  6
SLD-Сплошная
 62
     7
370
    25
100
AcDbSpline
210
0.0
220
0.0
230
1.0
 70
     8
 71
     3
 72
    16
 73
    12
 74
     0
 42
0.00000001
 43
0.00000001
 40
0.0
 40
0.0
 40
0.0
 40
0.0
 40
0.3027546188505044
 40
0.4124477137099494
 40
0.5015757145467405
 40
0.5427570508221191
 40
0.5848752737303573
 40
0.6308319729479651
 40
0.6833477730472237
 40
0.8165617895827372
 40
1.0
 40
1.0
 40
1.0
 40
1.0
 10
111.2926605457297
 20
171.9148617902973
 30
0.0
 10
111.2946816323355
 20
171.9191536168676
 30
0.0
 10
111.2974349926407
 20
171.9250004444513
 30
0.0
 10
111.2992713916383
 20
171.945989936533
 30
0.0
 10
111.3044148777326
 20
171.9683713362001
 30
0.0
 10
111.3113958878729
 20
171.9930353481448
 30
0.0
 10
111.317939637671
 20
172.0146933345903
 30
0.0
 10
111.3257802652783
 20
172.0398168258777
 30
0.0
 10
111.3386487631842
 20
172.0809541370087
 30
0.0
 10
111.3572520378865
 20
172.1423053776156
 30
0.0
 10
111.3661649865125
 20
172.1844257986984
 30
0.0
 10
111.3713283019934
 20
172.2088263681806
 30
0.0
  0
SPLINE
  5
111
330
1F
100
AcDbEntity
  8
0
  6
SLD-Сплошная
 62
     7
370
    25
100
AcDbSpline
210
0.0
220
0.0
230
1.0
 70
     8
 71
     3
 72
    16
 73
    12
 74
     0
 42
0.00000001
 43
0.00000001
 40
0.0
 40
0.0
 40
0.0
 40
0.0
 40
0.1834276149935249
 40
0.3167751978393518
 40
0.3693392788062138
 40
0.4153201385481859
 40
0.4574514552843246
 40
0.4986541122110964
 40
0.5878640459358981
 40
0.6975764262199884
 40
1.0
 40
1.0
 40
1.0
 40
1.0
 10
34.55096843622671
 20
122.0201109378537
 30
0.0
 10
34.57538681179535
 20
122.0150304606178
 30
0.0
 10
34.61755677487285
 20
122.0062565953436
 30
0.0
 10
34.68119224835438
 20
121.9986750259981
 30
0.0
 10
34.72405120096985
 20
121.9939483769604
 30
0.0
 10
34.75022037099871
 20
121.9910419920186
 30
0.0
 10
34.77268926797571
 20
121.9883352395413
 30
0.0
 10
34.79807478449929
 20
121.9848164917132
 30
0.0
 10
34.82059814181618
 20
121.9805293234506
 30
0.0
 10
34.84057489038371
 20
121.9737899549615
 30
0.0
 10
34.84709650282431
 20
121.9739874318151
 30
0.0
 10
34.85188203371925
 20
121.9741323394729
 30
0.0
  0
ARC
  5
112
330
1F
100
AcDbEntity
  8
0
  6
SLD-Сплошная
 62
     7
370
    25
100
AcDbCircle
 10
72.3868448843
 20
147.9936312916
 30
0.0
 40
12.14999999999999
100
AcDbArc
 50
330.0
 51
150.0
  0
ARC
  5
113
330
1F
100
AcDbEntity
  8
0
  6
SLD-Сплошная
 62
     7
370
    25
100
AcDbCircle
 10
72.3868448843
 20
147.9936312916
 30
0.0
 40
12.14999999999999
100
AcDbArc
 50
150.0
 51
330.0
  0
LINE
  5
114
330
1F
100
AcDbEntity
  8
0
  6
SLD-Сплошная
 62
     7
370
    25
100
AcDbLine
 10
71.3868448843
 20
127.7436312916
 30
0.0
 11
73.3868448843
 21
127.7436312916
 31
0.0
  0
LINE
  5
115
330
1F
100
AcDbEntity
  8
0
  6
SLD-Сплошная
 62
     7
370
    25
100
AcDbLine
 10
71.3868448843
 20
128.5693552434
 30
0.0
 11
71.3868448843
 21
127.7436312916
 31
0.0
  0
ARC
  5
116
330
1F
100
AcDbEntity
  8
0
  6
SLD-Сплошная
 62
     7
370
    25
100
AcDbCircle
 10
72.3868448843
 20
147.9936312916
 30
0.0
 40
19.45000000000003
100
AcDbArc
 50
212.9470977931
 51
267.0529022069
  0
LINE
  5
117
330
1F
100
AcDbEntity
  8
0
  6
SLD-Сплошная
 62
     7
370
    25
100
AcDbLine
 10
55.3498304577
 20
137.0026058879
 30
0.0
 11
56.0649283764
 21
137.4154678637
 31
0.0
  0
LINE
  5
118
330
1F
100
AcDbEntity
  8
0
  6
SLD-Сплошная
 62
     7
370
    25
100
AcDbLine
 10
54.3498304577
 20
138.7346566954
 30
0.0
 11
55.3498304577
 21
137.0026058879
 31
0.0
  0
LINE
  5
119
330
1F
100
AcDbEntity
  8
0
  6
SLD-Сплошная
 62
     7
370
    25
100
AcDbLine
 10
55.0649283764
 20
139.1475186713
 30
0.0
 11
54.3498304577
 21
138.7346566954
 31
0.0
  0
ARC
  5
11A
330
1F
100
AcDbEntity
  8
0
  6
SLD-Сплошная
 62
     7
370
    25
100
AcDbCircle
 10
72.3868448843
 20
147.9936312916
 30
0.0
 40
19.45
100
AcDbArc
 50
152.9470977931
 51
207.0529022069
  0
LINE
  5
11B
330
1F
100
AcDbEntity
  8
0
  6
SLD-Сплошная
 62
     7
370
    25
100
AcDbLine
 10
54.3498304577
 20
157.2526058879
 30
0.0
 11
55.0649283764
 21
156.839743912
 31
0.0
  0
LINE
  5
11C
330
1F
100
AcDbEntity
  8
0
  6
SLD-Сплошная
 62
     7
370
    25
100
AcDbLine
 10
55.3498304577
 20
158.9846566954
 30
0.0
 11
54.3498304577
 21
157.2526058879
 31
0.0
  0
LINE
  5
11D
330
1F
100
AcDbEntity
  8
0
  6
SLD-Сплошная
 62
     7
370
    25
100
AcDbLine
 10
55.3498304577
 20
158.9846566954
 30
0.0
 11
56.0649283764
 21
158.5717947196
 31
0.0
  0
ARC
  5
11E
330
1F
100
AcDbEntity
  8
0
  6
SLD-Сплошная
 62
     7
370
    25
100
AcDbCircle
 10
72.3868448843
 20
147.9936312916
 30
0.0
 40
19.45000000000005
100
AcDbArc
 50
92.9470977931
 51
147.0529022069
  0
LINE
  5
11F
330
1F
100
AcDbEntity
  8
0
  6
SLD-Сплошная
 62
     7
370
    25
100
AcDbLine
 10
71.3868448843
 20
168.2436312916
 30
0.0
 11
71.3868448843
 21
167.4179073399
 31
0.0
  0
LINE
  5
120
330
1F
100
AcDbEntity
  8
0
  6
SLD-Сплошная
 62
     7
370
    25
100
AcDbLine
 10
73.3868448843
 20
168.2436312916
 30
0.0
 11
71.3868448843
 21
168.2436312916
 31
0.0
  0
LINE
  5
121
330
1F
100
AcDbEntity
  8
0
  6
SLD-Сплошная
 62
     7
370
    25
100
AcDbLine
 10
73.3868448843
 20
167.4179073399
 30
0.0
 11
73.3868448843
 21
168.2436312916
 31
0.0
  0
ARC
  5
122
330
1F
100
AcDbEntity
  8
0
  6
SLD-Сплошная
 62
     7
370
    25
100
AcDbCircle
 10
72.3868448843
 20
147.9936312916
 30
0.0
 40
19.45000000000002
100
AcDbArc
 50
32.9470977931
 51
87.0529022069
  0
LINE
  5
123
330
1F
100
AcDbEntity
  8
0
  6
SLD-Сплошная
 62
     7
370
    25
100
AcDbLine
 10
89.4238593109
 20
158.9846566954
 30
0.0
 11
88.7087613922
 21
158.5717947196
 31
0.0
  0
LINE
  5
124
330
1F
100
AcDbEntity
  8
0
  6
SLD-Сплошная
 62
     7
370
    25
100
AcDbLine
 10
90.4238593109
 20
157.2526058879
 30
0.0
 11
89.4238593109
 21
158.9846566954
 31
0.0
  0
LINE
  5
125
330
1F
100
AcDbEntity
  8
0
  6
SLD-Сплошная
 62
     7
370
    25
100
AcDbLine
 10
90.4238593109
 20
157.2526058879
 30
0.0
 11
89.7087613922
 21
156.839743912
 31
0.0
  0
ARC
  5
126
330
1F
100
AcDbEntity
  8
0
  6
SLD-Сплошная
 62
     7
370
    25
100
AcDbCircle
 10
72.3868448843
 20
147.9936312916
 30
0.0
 40
19.44999999999999
100
AcDbArc
 50
332.9470977931
 51
27.0529022069
  0
LINE
  5
127
330
1F
100
AcDbEntity
  8
0
  6
SLD-Сплошная
 62
     7
370
    25
100
AcDbLine
 10
90.4238593109
 20
138.7346566954
 30
0.0
 11
89.7087613922
 21
139.1475186713
 31
0.0
  0
LINE
  5
128
330
1F
100
AcDbEntity
  8
0
  6
SLD-Сплошная
 62
     7
370
    25
100
AcDbLine
 10
89.4238593109
 20
137.0026058879
 30
0.0
 11
90.4238593109
 21
138.7346566954
 31
0.0
  0
LINE
  5
129
330
1F
100
AcDbEntity
  8
0
  6
SLD-Сплошная
 62
     7
370
    25
100
AcDbLine
 10
88.7087613922
 20
137.4154678637
 30
0.0
 11
89.4238593109
 21
137.0026058879
 31
0.0
  0
ARC
  5
12A
330
1F
100
AcDbEntity
  8
0
  6
SLD-Сплошная
 62
     7
370
    25
100
AcDbCircle
 10
72.3868448843
 20
147.9936312916
 30
0.0
 40
19.44999999999998
100
AcDbArc
 50
272.9470977931
 51
327.0529022069
  0
LINE
  5
12B
330
1F
100
AcDbEntity
  8
0
  6
SLD-Сплошная
 62
     7
370
    25
100
AcDbLine
 10
73.3868448843
 20
127.7436312916
 30
0.0
 11
73.3868448843
 21
128.5693552434
 31
0.0
  0
ARC
  5
12C
330
1F
100
AcDbEntity
  8
0
  6
SLD-Сплошная
 62
     7
370
    25
100
AcDbCircle
 10
72.3868448843
 20
147.9936312916
 30
0.0
 40
10.05
100
AcDbArc
 50
330.0
 51
150.0
  0
ARC
  5
12D
330
1F
100
AcDbEntity
  8
0
  6
SLD-Сплошная
 62
     7
370
    25
100
AcDbCircle
 10
72.3868448843
 20
147.9936312916
 30
0.0
 40
10.05
100
AcDbArc
 50
150.0
 51
330.0
  0
ARC
  5
12E
330
1F
100
AcDbEntity
  8
0
  6
SLD-Сплошная
 62
     7
370
    25
100
AcDbCircle
 10
72.3868448843
 20
147.9936312916
 30
0.0
 40
22.65000000000003
100
AcDbArc
 50
116.6146480383
 51
123.3853519617
  0
LINE
  5
12F
330
1F
100
AcDbEntity
  8
0
  6
SLD-Сплошная
 62
     7
370
    25
100
AcDbLine
 10
55.3498304577
 20
158.9846566954
 30
0.0
 11
59.9232908152
 21
166.9061224012
 31
0.0
  0
LINE
  5
130
330
1F
100
AcDbEntity
  8
0
  6
SLD-Сплошная
 62
     7
370
    25
100
AcDbLine
 10
62.2399241691
 20
168.2436312916
 30
0.0
 11
71.3868448843
 21
168.2436312916
 31
0.0
  0
ARC
  5
131
330
1F
100
AcDbEntity
  8
0
  6
SLD-Сплошная
 62
     7
370
    25
100
AcDbCircle
 10
72.3868448843
 20
147.9936312916
 30
0.0
 40
22.64999999999999
100
AcDbArc
 50
236.6146480383
 51
243.3853519617
  0
LINE
  5
132
330
1F
100
AcDbEntity
  8
0
  6
SLD-Сплошная
 62
     7
370
    25
100
AcDbLine
 10
62.2399241691
 20
127.7436312916
 30
0.0
 11
71.3868448843
 21
127.7436312916
 31
0.0
  0
LINE
  5
133
330
1F
100
AcDbEntity
  8
0
  6
SLD-Сплошная
 62
     7
370
    25
100
AcDbLine
 10
55.3498304577
 20
137.0026058879
 30
0.0
 11
59.9232908152
 21
129.0811401821
 31
0.0
  0
ARC
  5
134
330
1F
100
AcDbEntity
  8
0
  6
SLD-Сплошная
 62
     7
370
    25
100
AcDbCircle
 10
72.3868448843
 20
147.9936312916
 30
0.0
 40
22.65000000000002
100
AcDbArc
 50
356.6146480383
 51
3.3853519617
  0
LINE
  5
135
330
1F
100
AcDbEntity
  8
0
  6
SLD-Сплошная
 62
     7
370
    25
100
AcDbLine
 10
94.9973196685
 20
149.3311401821
 30
0.0
 11
90.4238593109
 21
157.2526058879
 31
0.0
  0
LINE
  5
136
330
1F
100
AcDbEntity
  8
0
  6
SLD-Сплошная
 62
     7
370
    25
100
AcDbLine
 10
90.4238593109
 20
138.7346566954
 30
0.0
 11
94.9973196685
 21
146.6561224012
 31
0.0
  0
ARC
  5
137
330
1F
100
AcDbEntity
  8
0
  6
SLD-Сплошная
 62
     7
370
    25
100
AcDbCircle
 10
72.3868448843
 20
147.9936312916
 30
0.0
 40
22.65000000000001
100
AcDbArc
 50
296.6146480383
 51
303.3853519617
  0
LINE
  5
138
330
1F
100
AcDbEntity
  8
0
  6
SLD-Сплошная
 62
     7
370
    25
100
AcDbLine
 10
73.3868448843
 20
127.7436312916
 30
0.0
 11
82.5337655995
 21
127.7436312916
 31
0.0
  0
LINE
  5
139
330
1F
100
AcDbEntity
  8
0
  6
SLD-Сплошная
 62
     7
370
    25
100
AcDbLine
 10
84.8503989533
 20
129.0811401821
 30
0.0
 11
89.4238593109
 21
137.0026058879
 31
0.0
  0
ARC
  5
13A
330
1F
100
AcDbEntity
  8
0
  6
SLD-Сплошная
 62
     7
370
    25
100
AcDbCircle
 10
72.3868448843
 20
147.9936312916
 30
0.0
 40
22.65000000000001
100
AcDbArc
 50
56.6146480383
 51
63.3853519617
  0
LINE
  5
13B
330
1F
100
AcDbEntity
  8
0
  6
SLD-Сплошная
 62
     7
370
    25
100
AcDbLine
 10
89.4238593109
 20
158.9846566954
 30
0.0
 11
84.8503989533
 21
166.9061224012
 31
0.0
  0
LINE
  5
13C
330
1F
100
AcDbEntity
  8
0
  6
SLD-Сплошная
 62
     7
370
    25
100
AcDbLine
 10
82.5337655995
 20
168.2436312916
 30
0.0
 11
73.3868448843
 21
168.2436312916
 31
0.0
  0
ARC
  5
13D
330
1F
100
AcDbEntity
  8
0
  6
SLD-Сплошная
 62
     7
370
    25
100
AcDbCircle
 10
72.3868448843
 20
147.9936312916
 30
0.0
 40
22.64999999999997
100
AcDbArc
 50
176.6146480383
 51
183.3853519617
  0
LINE
  5
13E
330
1F
100
AcDbEntity
  8
0
  6
SLD-Сплошная
 62
     7
370
    25
100
AcDbLine
 10
54.3498304577
 20
157.2526058879
 30
0.0
 11
49.7763701001
 21
149.3311401821
 31
0.0
  0
LINE
  5
13F
330
1F
100
AcDbEntity
  8
0
  6
SLD-Сплошная
 62
     7
370
    25
100
AcDbLine
 10
49.7763701001
 20
146.6561224012
 30
0.0
 11
54.3498304577
 21
138.7346566954
 31
0.0
  0
ARC
  5
140
330
1F
100
AcDbEntity
  8
0
  6
SLD-Сплошная
 62
     7
370
    25
100
AcDbCircle
 10
72.3868448843
 20
147.9936312916
 30
0.0
 40
8.000000000000012
100
AcDbArc
 50
75.2465276711
 51
150.0
  0
ARC
  5
141
330
1F
100
AcDbEntity
  8
0
  6
SLD-Сплошная
 62
     7
370
    25
100
AcDbCircle
 10
72.3868448843
 20
147.9936312916
 30
0.0
 40
8.000000000000012
100
AcDbArc
 50
330.0
 51
75.2465276711
  0
ARC
  5
142
330
1F
100
AcDbEntity
  8
0
  6
SLD-Сплошная
 62
     7
370
    25
100
AcDbCircle
 10
72.3868448843
 20
147.9936312916
 30
0.0
 40
8.000000000000012
100
AcDbArc
 50
150.0
 51
255.2465276711
  0
ARC
  5
143
330
1F
100
AcDbEntity
  8
0
  6
SLD-Сплошная
 62
     7
370
    25
100
AcDbCircle
 10
72.3868448843
 20
147.9936312916
 30
0.0
 40
8.000000000000012
100
AcDbArc
 50
255.2465276711
 51
330.0
  0
ARC
  5
144
330
1F
100
AcDbEntity
  8
0
  6
SLD-Сплошная
 62
     7
370
    25
100
AcDbCircle
 10
72.3868448843
 20
147.9936312916
 30
0.0
 40
22.65000000000002
100
AcDbArc
 50
63.3853519617
 51
116.6146480383
  0
ARC
  5
145
330
1F
100
AcDbEntity
  8
0
  6
SLD-Сплошная
 62
     7
370
    25
100
AcDbCircle
 10
72.3868448843
 20
147.9936312916
 30
0.0
 40
22.65000000000002
100
AcDbArc
 50
243.3853519617
 51
296.6146480383
  0
ARC
  5
146
330
1F
100
AcDbEntity
  8
0
  6
SLD-Сплошная
 62
     7
370
    25
100
AcDbCircle
 10
72.3868448843
 20
147.9936312916
 30
0.0
 40
22.65000000000002
100
AcDbArc
 50
3.3853519617
 51
56.6146480383
  0
ARC
  5
147
330
1F
100
AcDbEntity
  8
0
  6
SLD-Сплошная
 62
     7
370
    25
100
AcDbCircle
 10
72.3868448843
 20
147.9936312916
 30
0.0
 40
22.65
100
AcDbArc
 50
183.3853519617
 51
236.6146480383
  0
ARC
  5
148
330
1F
100
AcDbEntity
  8
0
  6
SLD-Сплошная
 62
     7
370
    25
100
AcDbCircle
 10
72.3868448843
 20
147.9936312916
 30
0.0
 40
22.65000000000004
100
AcDbArc
 50
123.3853519617
 51
150.0
  0
ARC
  5
149
330
1F
100
AcDbEntity
  8
0
  6
SLD-Сплошная
 62
     7
370
    25
100
AcDbCircle
 10
72.3868448843
 20
147.9936312916
 30
0.0
 40
22.65000000000004
100
AcDbArc
 50
150.0
 51
176.6146480383
  0
ARC
  5
14A
330
1F
100
AcDbEntity
  8
0
  6
SLD-Сплошная
 62
     7
370
    25
100
AcDbCircle
 10
72.3868448843
 20
147.9936312916
 30
0.0
 40
22.65000000000003
100
AcDbArc
 50
330.0
 51
356.6146480383
  0
ARC
  5
14B
330
1F
100
AcDbEntity
  8
0
  6
SLD-Сплошная
 62
     7
370
    25
100
AcDbCircle
 10
72.3868448843
 20
147.9936312916
 30
0.0
 40
22.65000000000003
100
AcDbArc
 50
303.3853519617
 51
330.0
  0
SPLINE
  5
14C
330
1F
100
AcDbEntity
  8
0
  6
SLD-Сплошная
 62
     7
370
    25
100
AcDbSpline
210
0.0
220
0.0
230
1.0
 70
    24
 71
     3
 72
    20
 73
    16
 74
     0
 42
0.00000001
 43
0.00000001
 40
0.0
 40
0.0
 40
0.0
 40
0.0
 40
0.25
 40
0.25
 40
0.5
 40
0.5
 40
0.5625
 40
0.5625
 40
0.59375
 40
0.59375
 40
0.625
 40
0.625
 40
0.75
 40
0.75
 40
1.0
 40
1.0
 40
1.0
 40
1.0
 10
66.92976274452575
 20
124.5433449126432
 30
0.0
 10
67.81981026429206
 20
124.5433449126432
 30
0.0
 10
68.71759030729204
 20
124.5433449126432
 30
0.0
 10
70.53055087129206
 20
124.5433449126432
 30
0.0
 10
71.44573563229206
 20
124.5433449126432
 30
0.0
 10
72.60151606829207
 20
124.5433449126432
 30
0.0
 10
72.83326067729206
 20
124.5433449126432
 30
0.0
 10
73.18177284929206
 20
124.5433449126432
 30
0.0
 10
73.29805363329206
 20
124.5433449126432
 30
0.0
 10
73.53000060529206
 20
124.5433449126432
 30
0.0
 10
73.64577933529206
 20
124.5433449126432
 30
0.0
 10
74.22371119829207
 20
124.5433449126432
 30
0.0
 10
74.68297762129207
 20
124.5433449126432
 30
0.0
 10
76.05203579129206
 20
124.5433449126432
 30
0.0
 10
76.95307834829205
 20
124.5433449126432
 30
0.0
 10
77.84392714584176
 20
124.5433449126432
 30
0.0
  0
SPLINE
  5
14D
330
1F
100
AcDbEntity
  8
0
  6
SLD-Сплошная
 62
     7
370
    25
100
AcDbSpline
210
0.0
220
0.0
230
1.0
 70
     8
 71
     3
 72
    14
 73
    10
 74
     0
 42
0.00000001
 43
0.00000001
 40
0.0
 40
0.0
 40
0.0
 40
0.0
 40
0.2500000000000001
 40
0.2500000000000001
 40
0.5000000000000002
 40
0.5000000000000002
 40
0.7500000000000001
 40
0.7500000000000001
 40
1.0
 40
1.0
 40
1.0
 40
1.0
 10
96.73684488451572
 20
147.9936312916645
 30
0.0
 10
96.73684488450422
 20
145.3653569457211
 30
0.0
 10
96.30763207046478
 20
142.7375618057846
 30
0.0
 10
94.6350887715387
 20
137.7541991796691
 30
0.0
 10
93.39206323685391
 20
135.3995402962389
 30
0.0
 10
90.22082284513597
 20
131.2073405719891
 30
0.0
 10
88.2931861916077
 20
129.3705640833707
 30
0.0
 10
83.95287133099029
 20
126.4052696526898
 30
0.0
 10
81.54098448152611
 20
125.2772923645736
 30
0.0
 10
79.01185864728062
 20
124.5622059698041
 30
0.0
  0
SPLINE
  5
14E
330
1F
100
AcDbEntity
  8
0
  6
SLD-Сплошная
 62
     7
370
    25
100
AcDbSpline
210
0.0
220
0.0
230
1.0
 70
     8
 71
     3
 72
    14
 73
    10
 74
     0
 42
0.00000001
 43
0.00000001
 40
0.0
 40
0.0
 40
0.0
 40
0.0
 40
0.25
 40
0.25
 40
0.5
 40
0.5
 40
0.75
 40
0.75
 40
1.0
 40
1.0
 40
1.0
 40
1.0
 10
65.76183105427887
 20
124.5622059887652
 30
0.0
 10
63.23270522766755
 20
125.2772923891808
 30
0.0
 10
60.82081838649264
 20
126.4052696807713
 30
0.0
 10
56.48050354182829
 20
129.3705641142035
 30
0.0
 10
54.55286689595393
 20
131.2073406021032
 30
0.0
 10
51.3816265172453
 20
135.3995403216231
 30
0.0
 10
50.13860098790845
 20
137.7541992010499
 30
0.0
 10
48.46605769625619
 20
142.7375618173489
 30
0.0
 10
48.03684488413857
 20
145.3653569514822
 30
0.0
 10
48.03684488413855
 20
147.9936312916151
 30
0.0
  0
SPLINE
  5
14F
330
1F
100
AcDbEntity
  8
0
  6
SLD-Сплошная
 62
     7
370
    25
100
AcDbSpline
210
0.0
220
0.0
230
1.0
 70
     8
 71
     3
 72
    12
 73
     8
 74
     0
 42
0.00000001
 43
0.00000001
 40
0.0
 40
0.0
 40
0.0
 40
0.0
 40
0.1918742571502244
 40
0.3854539231825799
 40
0.5831790843181047
 40
0.7873370216062819
 40
1.0
 40
1.0
 40
1.0
 40
1.0
 10
65.76183082803435
 20
124.562205188581
 30
0.0
 10
65.76020539903871
 20
124.5621604014077
 30
0.0
 10
65.75694009397628
 20
124.5620704289857
 30
0.0
 10
65.76326666833128
 20
124.5627476340356
 30
0.0
 10
65.77795175355973
 20
124.5641133759421
 30
0.0
 10
65.80122701260662
 20
124.5662281898446
 30
0.0
 10
65.82328657973176
 20
124.5682895835035
 30
0.0
 10
65.83454142100868
 20
124.5693413112328
 30
0.0
  0
ARC
  5
150
330
1F
100
AcDbEntity
  8
0
  6
SLD-Сплошная
 62
     7
370
    25
100
AcDbCircle
 10
78.876403704
 20
125.035744777
 30
0.0
 40
0.4923998646422599
100
AcDbArc
 50
270.0019300308
 51
286.0316226774
  0
SPLINE
  5
151
330
1F
100
AcDbEntity
  8
0
  6
SLD-Сплошная
 62
     7
370
    25
100
AcDbSpline
210
0.0
220
0.0
230
1.0
 70
    24
 71
     3
 72
    24
 73
    20
 74
     0
 42
0.00000001
 43
0.00000001
 40
0.0
 40
0.0
 40
0.0
 40
0.0
 40
0.25
 40
0.25
 40
0.375
 40
0.375
 40
0.5
 40
0.5
 40
0.625
 40
0.625
 40
0.75
 40
0.75
 40
0.8125
 40
0.8125
 40
0.875
 40
0.875
 40
0.9375
 40
0.9375
 40
1.0
 40
1.0
 40
1.0
 40
1.0
 10
77.84392714584176
 20
124.5433449126432
 30
0.0
 10
77.94909023729205
 20
124.5433449126432
 30
0.0
 10
78.05288622629206
 20
124.5433449126432
 30
0.0
 10
78.20551572729207
 20
124.5433449126432
 30
0.0
 10
78.25587683229206
 20
124.5433449126432
 30
0.0
 10
78.35526900629206
 20
124.5433449126432
 30
0.0
 10
78.40441476629206
 20
124.5433449126432
 30
0.0
 10
78.50036367429206
 20
124.5433449126432
 30
0.0
 10
78.54702552629205
 20
124.5433449126432
 30
0.0
 10
78.63658585429206
 20
124.5433449126432
 30
0.0
 10
78.67959180829206
 20
124.5433449126432
 30
0.0
 10
78.73789441329205
 20
124.5433449126432
 30
0.0
 10
78.75634953129206
 20
124.5433449126432
 30
0.0
 10
78.79074426029206
 20
124.5433449126432
 30
0.0
 10
78.80674936629207
 20
124.5433449126432
 30
0.0
 10
78.83509169029206
 20
124.5433449126432
 30
0.0
 10
78.84714044529207
 20
124.5433449126432
 30
0.0
 10
78.86605062029206
 20
124.5433449126432
 30
0.0
 10
78.87291636629207
 20
124.5433449126432
 30
0.0
 10
78.87642027909406
 20
124.5433449126432
 30
0.0
  0
SPLINE
  5
152
330
1F
100
AcDbEntity
  8
0
  6
SLD-Сплошная
 62
     7
370
    25
100
AcDbSpline
210
0.0
220
0.0
230
1.0
 70
     8
 71
     3
 72
     8
 73
     4
 74
     0
 42
0.00000001
 43
0.00000001
 40
0.0
 40
0.0
 40
0.0
 40
0.0
 40
1.0
 40
1.0
 40
1.0
 40
1.0
 10
65.89796007184806
 20
124.5433449126539
 30
0.0
 10
65.85894683654577
 20
124.5433453522801
 30
0.0
 10
65.81246588873746
 20
124.5478915559839
 30
0.0
 10
65.76183138679006
 20
124.5622071647945
 30
0.0
  0
SPLINE
  5
153
330
1F
100
AcDbEntity
  8
0
  6
SLD-Сплошная
 62
     7
370
    25
100
AcDbSpline
210
0.0
220
0.0
230
1.0
 70
    24
 71
     3
 72
    10
 73
     6
 74
     0
 42
0.00000001
 43
0.00000001
 40
0.0
 40
0.0
 40
0.0
 40
0.0
 40
0.5
 40
0.5
 40
1.0
 40
1.0
 40
1.0
 40
1.0
 10
65.89796007184806
 20
124.5433449126539
 30
0.0
 10
65.86455315556137
 20
124.5433449126432
 30
0.0
 10
66.07983596743435
 20
124.5433449126431
 30
0.0
 10
66.48358891799417
 20
124.5433449126432
 30
0.0
 10
66.70485854166166
 20
124.5433449126432
 30
0.0
 10
66.92976274452575
 20
124.5433449126432
 30
0.0
  0
LINE
  5
154
330
1F
100
AcDbEntity
  8
0
  6
SLD-Сплошная
 62
     7
370
    25
100
AcDbLine
 10
69.0368448843
 20
172.1129989374
 30
0.0
 11
69.0368448843
 21
185.2436312916
 31
0.0
  0
LINE
  5
155
330
1F
100
AcDbEntity
  8
0
  6
SLD-Сплошная
 62
     7
370
    25
100
AcDbLine
 10
69.0368448843
 20
185.2436312916
 30
0.0
 11
75.7368448843
 21
185.2436312916
 31
0.0
  0
LINE
  5
156
330
1F
100
AcDbEntity
  8
0
  6
SLD-Сплошная
 62
     7
370
    25
100
AcDbLine
 10
75.7368448843
 20
172.1129989374
 30
0.0
 11
75.7368448843
 21
185.2436312916
 31
0.0
  0
ARC
  5
157
330
1F
100
AcDbEntity
  8
0
  6
SLD-Сплошная
 62
     7
370
    25
100
AcDbCircle
 10
72.3868448843
 20
147.9936312916
 30
0.0
 40
27.00000000025191
100
AcDbArc
 50
0.0
 51
82.8727121181
  0
ARC
  5
158
330
1F
100
AcDbEntity
  8
0
  6
SLD-Сплошная
 62
     7
370
    25
100
AcDbCircle
 10
72.3868448843
 20
147.9936312916
 30
0.0
 40
27.00000000025191
100
AcDbArc
 50
97.1272878819
 51
180.0
  0
ARC
  5
159
330
1F
100
AcDbEntity
  8
0
  6
SLD-Сплошная
 62
     7
370
    25
100
AcDbCircle
 10
72.3868448843
 20
147.9936312916
 30
0.0
 40
27.0000000002519
100
AcDbArc
 50
180.0
 51
0.0
  0
LINE
  5
15A
330
1F
100
AcDbEntity
  8
0
  6
SLD-Сплошная
 62
     7
370
    25
100
AcDbLine
 10
67.0868448831
 20
153.9243657017
 30
0.0
 11
67.0868448831
 21
153.9861265972
 31
0.0
  0
ARC
  5
15B
330
1F
100
AcDbEntity
  8
0
  6
SLD-Сплошная
 62
     7
370
    25
100
AcDbCircle
 10
68.9868448831
 20
150.6091923198
 30
0.0
 40
1.100000000000009
100
AcDbArc
 50
180.0
 51
270.0
  0
LINE
  5
15C
330
1F
100
AcDbEntity
  8
0
  6
SLD-Сплошная
 62
     7
370
    25
100
AcDbLine
 10
68.9868448831
 20
149.5091923198
 30
0.0
 11
75.7868448831
 21
149.5091923198
 31
0.0
  0
ARC
  5
15D
330
1F
100
AcDbEntity
  8
0
  6
SLD-Сплошная
 62
     7
370
    25
100
AcDbCircle
 10
75.7868448831
 20
150.6091923198
 30
0.0
 40
1.100000000000023
100
AcDbArc
 50
270.0
 51
360.0
  0
LINE
  5
15E
330
1F
100
AcDbEntity
  8
0
  6
SLD-Сплошная
 62
     7
370
    25
100
AcDbLine
 10
76.8868448831
 20
150.6091923198
 30
0.0
 11
76.8868448831
 21
153.4091923198
 31
0.0
  0
ARC
  5
15F
330
1F
100
AcDbEntity
  8
0
  6
SLD-Сплошная
 62
     7
370
    25
100
AcDbCircle
 10
75.7868448831
 20
153.4091923198
 30
0.0
 40
1.100000000000222
100
AcDbArc
 50
0.0
 51
90.0
  0
LINE
  5
160
330
1F
100
AcDbEntity
  8
0
  6
SLD-Сплошная
 62
     7
370
    25
100
AcDbLine
 10
75.7868448831
 20
154.5091923198
 30
0.0
 11
68.9868448831
 21
154.5091923198
 31
0.0
  0
ARC
  5
161
330
1F
100
AcDbEntity
  8
0
  6
SLD-Сплошная
 62
     7
370
    25
100
AcDbCircle
 10
68.9868448831
 20
153.4091923198
 30
0.0
 40
1.100000000000222
100
AcDbArc
 50
90.0
 51
180.0
  0
LINE
  5
162
330
1F
100
AcDbEntity
  8
0
  6
SLD-Сплошная
 62
     7
370
    25
100
AcDbLine
 10
67.8868448831
 20
153.4091923198
 30
0.0
 11
67.8868448831
 21
150.6091923198
 31
0.0
  0
LINE
  5
163
330
1F
100
AcDbEntity
  8
0
  6
SLD-Сплошная
 62
     7
370
    25
100
AcDbLine
 10
76.1868448834
 20
153.4443614223
 30
0.0
 11
75.1275797077
 21
153.4443614223
 31
0.0
  0
LINE
  5
164
330
1F
100
AcDbEntity
  8
0
  6
SLD-Сплошная
 62
     7
370
    25
100
AcDbLine
 10
76.1868448834
 20
150.5841991106
 30
0.0
 11
76.1868448834
 21
153.4443614223
 31
0.0
  0
LINE
  5
165
330
1F
100
AcDbEntity
  8
0
  6
SLD-Сплошная
 62
     7
370
    25
100
AcDbLine
 10
75.9626778364
 20
150.5841991106
 30
0.0
 11
76.1868448834
 21
150.5841991106
 31
0.0
  0
LINE
  5
166
330
1F
100
AcDbEntity
  8
0
  6
SLD-Сплошная
 62
     7
370
    25
100
AcDbLine
 10
75.9626778364
 20
153.1070539714
 30
0.0
 11
75.9626778364
 21
150.5841991106
 31
0.0
  0
LINE
  5
167
330
1F
100
AcDbEntity
  8
0
  6
SLD-Сплошная
 62
     7
370
    25
100
AcDbLine
 10
75.1275797077
 20
153.1070539714
 30
0.0
 11
75.9626778364
 21
153.1070539714
 31
0.0
  0
LINE
  5
168
330
1F
100
AcDbEntity
  8
0
  6
SLD-Сплошная
 62
     7
370
    25
100
AcDbLine
 10
75.1275797077
 20
153.4443614223
 30
0.0
 11
75.1275797077
 21
153.1070539714
 31
0.0
  0
LINE
  5
169
330
1F
100
AcDbEntity
  8
0
  6
SLD-Сплошная
 62
     7
370
    25
100
AcDbLine
 10
74.9441703056
 20
152.6892610116
 30
0.0
 11
74.7360461613
 21
152.6424330791
 31
0.0
  0
SPLINE
  5
16A
330
1F
100
AcDbEntity
  8
0
  6
SLD-Сплошная
 62
     7
370
    25
100
AcDbSpline
210
0.0
220
0.0
230
1.0
 70
     8
 71
     3
 72
    20
 73
    16
 74
     0
 42
0.00000001
 43
0.00000001
 40
0.0
 40
0.0
 40
0.0
 40
0.0
 40
0.142423152420788
 40
0.142423152420788
 40
0.284524431846661
 40
0.284524431846661
 40
0.451921226981851
 40
0.451921226981851
 40
0.618250040926039
 40
0.618250040926039
 40
0.776658435158598
 40
0.776658435158598
 40
0.935066829391157
 40
0.935066829391157
 40
1.0
 40
1.0
 40
1.0
 40
1.0
 10
74.73604616133535
 20
152.6424330791212
 30
0.0
 10
74.71219860314275
 20
152.8414517920377
 30
0.0
 10
74.67144095823184
 20
152.9848623351685
 30
0.0
 10
74.55623582269835
 20
153.1602686505484
 30
0.0
 10
74.48673078023086
 20
153.2043682685323
 30
0.0
 10
74.30635652190145
 20
153.2043682685323
 30
0.0
 10
74.22354045617794
 20
153.147296725858
 30
0.0
 10
74.08869130365684
 20
152.9182800762035
 30
0.0
 10
74.05487318096114
 20
152.7763316984731
 30
0.0
 10
74.05487318096114
 20
152.4463411119829
 30
0.0
 10
74.08609180259515
 20
152.3131741790756
 30
0.0
 10
74.21096628913085
 20
152.1039118559353
 30
0.0
 10
74.29031361911726
 20
152.0512304319281
 30
0.0
 10
74.42602790483154
 20
152.0512304319281
 30
0.0
 10
74.47502379711815
 20
152.0644007879299
 30
0.0
 10
74.53355871268184
 20
152.0907414999335
 30
0.0
  0
LINE
  5
16B
330
1F
100
AcDbEntity
  8
0
  6
SLD-Сплошная
 62
     7
370
    25
100
AcDbLine
 10
74.5335587127
 20
152.0907414999
 30
0.0
 11
74.5105783384
 21
151.7819698203
 31
0.0
  0
SPLINE
  5
16C
330
1F
100
AcDbEntity
  8
0
  6
SLD-Сплошная
 62
     7
370
    25
100
AcDbSpline
210
0.0
220
0.0
230
1.0
 70
     8
 71
     3
 72
    20
 73
    16
 74
     0
 42
0.00000001
 43
0.00000001
 40
0.0
 40
0.0
 40
0.0
 40
0.0
 40
0.0186242872013127
 40
0.0186242872013127
 40
0.208592016654715
 40
0.208592016654715
 40
0.399010083305046
 40
0.399010083305046
 40
0.549972154162965
 40
0.549972154162965
 40
0.700934225020886
 40
0.700934225020886
 40
0.851093306140202
 40
0.851093306140202
 40
1.0
 40
1.0
 40
1.0
 40
1.0
 10
74.51057833842344
 20
151.7819698203351
 30
0.0
 10
74.49670339547514
 20
151.7848965661134
 30
0.0
 10
74.48543000432954
 20
151.7863599390026
 30
0.0
 10
74.38830540369044
 20
151.7863599390026
 30
0.0
 10
74.30852448173704
 20
151.7468488709969
 30
0.0
 10
74.16613774543764
 20
151.5915474840729
 30
0.0
 10
74.13118536717754
 20
151.4702713949588
 30
0.0
 10
74.13118536717754
 20
151.1790601900294
 30
0.0
 10
74.15720088520574
 20
151.0729656555704
 30
0.0
 10
74.26039577338474
 20
150.9032144004356
 30
0.0
 10
74.32716893632394
 20
150.8615082730965
 30
0.0
 10
74.48976592400085
 20
150.8615082730965
 30
0.0
 10
74.55697267890723
 20
150.9039460868801
 30
0.0
 10
74.66491862922074
 20
151.0759039857295
 30
0.0
 10
74.69962443609575
 20
151.2046692155885
 30
0.0
 10
74.71523374691284
 20
151.3766155300569
 30
0.0
  0
SPLINE
  5
16D
330
1F
100
AcDbEntity
  8
0
  6
SLD-Сплошная
 62
     7
370
    25
100
AcDbSpline
210
0.0
220
0.0
230
1.0
 70
     8
 71
     3
 72
    16
 73
    12
 74
     0
 42
0.00000001
 43
0.00000001
 40
0.0
 40
0.0
 40
0.0
 40
0.0
 40
0.16814799604092
 40
0.16814799604092
 40
0.336295992081839
 40
0.336295992081839
 40
0.564496843851659
 40
0.564496843851659
 40
0.793392001993249
 40
0.793392001993249
 40
1.0
 40
1.0
 40
1.0
 40
1.0
 10
74.15069700569873
 20
151.89538121924
 30
0.0
 10
74.05053726128975
 20
151.9341606008009
 30
0.0
 10
73.97292429917195
 20
152.0153777961453
 30
0.0
 10
73.86192475558455
 20
152.261224441513
 30
0.0
 10
73.83417486968784
 20
152.4148785948674
 30
0.0
 10
73.83417486968784
 20
152.8495003429277
 30
0.0
 10
73.88794027361284
 20
153.0609577254014
 30
0.0
 10
74.10419755743234
 20
153.4083047031023
 30
0.0
 10
74.24045054289634
 20
153.4948477870172
 30
0.0
 10
74.55393753513724
 20
153.4948477870171
 30
0.0
 10
74.67751124577175
 20
153.4202157696733
 30
0.0
 10
74.77593662231205
 20
153.2709517349861
 30
0.0
  0
SPLINE
  5
16E
330
1F
100
AcDbEntity
  8
0
  6
SLD-Сплошная
 62
     7
370
    25
100
AcDbSpline
210
0.0
220
0.0
230
1.0
 70
     8
 71
     3
 72
     8
 73
     4
 74
     0
 42
0.00000001
 43
0.00000001
 40
0.0
 40
0.0
 40
0.0
 40
0.0
 40
1.0
 40
1.0
 40
1.0
 40
1.0
 10
74.77593662231205
 20
153.2709517349861
 30
0.0
 10
74.87392840688536
 20
153.1209560138541
 30
0.0
 10
74.93029536261345
 20
152.9270591060495
 30
0.0
 10
74.94417030556174
 20
152.6892610115721
 30
0.0
  0
SPLINE
  5
16F
330
1F
100
AcDbEntity
  8
0
  6
SLD-Сплошная
 62
     7
370
    25
100
AcDbSpline
210
0.0
220
0.0
230
1.0
 70
     8
 71
     3
 72
    20
 73
    16
 74
     0
 42
0.00000001
 43
0.00000001
 40
0.0
 40
0.0
 40
0.0
 40
0.0
 40
0.185272548411117
 40
0.185272548411117
 40
0.370545096822235
 40
0.370545096822235
 40
0.498856829378802
 40
0.498856829378802
 40
0.62735422167457
 40
0.62735422167457
 40
0.755698711621523
 40
0.755698711621523
 40
0.87755387342509
 40
0.87755387342509
 40
1.0
 40
1.0
 40
1.0
 40
1.0
 10
74.92335789113915
 20
151.3136904958259
 30
0.0
 10
74.89777596507795
 20
151.0788191471267
 30
0.0
 10
74.84010823344855
 20
150.8958975359901
 30
0.0
 10
74.65973397511914
 20
150.6368805346209
 30
0.0
 10
74.54743365563034
 20
150.5724921275009
 30
0.0
 10
74.32066505681694
 20
150.572492127501
 30
0.0
 10
74.23568103125774
 20
150.6061497039499
 30
0.0
 10
74.07947499418763
 20
150.7394129793256
 30
0.0
 10
74.02061941555714
 20
150.8315091288701
 30
0.0
 10
73.93741928832013
 20
151.0625844822515
 30
0.0
 10
73.91742452737823
 20
151.1856453680303
 30
0.0
 10
73.91742452737823
 20
151.4395405642879
 30
0.0
 10
73.93693616589954
 20
151.5522202767479
 30
0.0
 10
74.01604125912453
 20
151.7546554260311
 30
0.0
 10
74.07395122751524
 20
151.8353829307871
 30
0.0
 10
74.15069700569873
 20
151.89538121924
 30
0.0
  0
LINE
  5
170
330
1F
100
AcDbEntity
  8
0
  6
SLD-Сплошная
 62
     7
370
    25
100
AcDbLine
 10
74.7152337469
 20
151.3766155301
 30
0.0
 11
74.9233578911
 21
151.3136904958
 31
0.0
  0
LINE
  5
171
330
1F
100
AcDbEntity
  8
0
  6
SLD-Сплошная
 62
     7
370
    25
100
AcDbLine
 10
69.8629060427
 20
153.1070539714
 30
0.0
 11
69.8629060427
 21
153.4443614223
 31
0.0
  0
LINE
  5
172
330
1F
100
AcDbEntity
  8
0
  6
SLD-Сплошная
 62
     7
370
    25
100
AcDbLine
 10
70.6980041714
 20
153.1070539714
 30
0.0
 11
69.8629060427
 21
153.1070539714
 31
0.0
  0
LINE
  5
173
330
1F
100
AcDbEntity
  8
0
  6
SLD-Сплошная
 62
     7
370
    25
100
AcDbLine
 10
70.9221712184
 20
153.4443614223
 30
0.0
 11
70.9221712184
 21
150.5841991106
 31
0.0
  0
LINE
  5
174
330
1F
100
AcDbEntity
  8
0
  6
SLD-Сплошная
 62
     7
370
    25
100
AcDbLine
 10
70.6980041714
 20
150.5841991106
 30
0.0
 11
70.6980041714
 21
153.1070539714
 31
0.0
  0
LINE
  5
175
330
1F
100
AcDbEntity
  8
0
  6
SLD-Сплошная
 62
     7
370
    25
100
AcDbLine
 10
70.9221712184
 20
150.5841991106
 30
0.0
 11
70.6980041714
 21
150.5841991106
 31
0.0
  0
LINE
  5
176
330
1F
100
AcDbEntity
  8
0
  6
SLD-Сплошная
 62
     7
370
    25
100
AcDbLine
 10
69.8629060427
 20
153.4443614223
 30
0.0
 11
70.9221712184
 21
153.4443614223
 31
0.0
  0
SPLINE
  5
177
330
1F
100
AcDbEntity
  8
0
  6
SLD-Сплошная
 62
     7
370
    25
100
AcDbSpline
210
0.0
220
0.0
230
1.0
 70
     8
 71
     3
 72
    24
 73
    20
 74
     0
 42
0.00000001
 43
0.00000001
 40
0.0
 40
0.0
 40
0.0
 40
0.0
 40
0.0482134946033761
 40
0.0482134946033761
 40
0.128146032572474
 40
0.128146032572474
 40
0.208078570541573
 40
0.208078570541573
 40
0.332581826661357
 40
0.332581826661357
 40
0.457467309890916
 40
0.457467309890916
 40
0.589252543575146
 40
0.589252543575146
 40
0.720308763390468
 40
0.720308763390468
 40
0.859781437689344
 40
0.859781437689344
 40
1.0
 40
1.0
 40
1.0
 40
1.0
 10
69.70724652646544
 20
153.4443614223436
 30
0.0
 10
69.70854730236685
 20
153.3602174812208
 30
0.0
 10
69.70074264695835
 20
153.2782685994316
 30
0.0
 10
69.65349266595524
 20
153.0721261518232
 30
0.0
 10
69.60882114992505
 20
152.9453512671631
 30
0.0
 10
69.48307947945496
 20
152.6951145031286
 30
0.0
 10
69.39202516635605
 20
152.550972273553
 30
0.0
 10
69.08928000575494
 20
152.131786666567
 30
0.0
 10
68.96493707872484
 20
151.9297704821335
 30
0.0
 10
68.83465981837834
 20
151.6322497888174
 30
0.0
 10
68.80277368301495
 20
151.4914903018505
 30
0.0
 10
68.80277368301495
 20
151.2193029444796
 30
0.0
 10
68.83225793678034
 20
151.1022331133522
 30
0.0
 10
68.94986874792204
 20
150.911061496161
 30
0.0
 10
69.02737432199264
 20
150.8629716459856
 30
0.0
 10
69.22249070720484
 20
150.8629716459856
 30
0.0
 10
69.30227162915824
 20
150.914189697104
 30
0.0
 10
69.42313251102975
 20
151.116675149376
 30
0.0
 10
69.45316163372253
 20
151.2573506395959
 30
0.0
 10
69.45402881765675
 20
151.4366138185096
 30
0.0
  0
LINE
  5
178
330
1F
100
AcDbEntity
  8
0
  6
SLD-Сплошная
 62
     7
370
    25
100
AcDbLine
 10
68.5868448834
 20
153.4443614223
 30
0.0
 11
69.7072465265
 21
153.4443614223
 31
0.0
  0
LINE
  5
179
330
1F
100
AcDbEntity
  8
0
  6
SLD-Сплошная
 62
     7
370
    25
100
AcDbLine
 10
68.5868448834
 20
153.1070539714
 30
0.0
 11
68.5868448834
 21
153.4443614223
 31
0.0
  0
LINE
  5
17A
330
1F
100
AcDbEntity
  8
0
  6
SLD-Сплошная
 62
     7
370
    25
100
AcDbLine
 10
69.4540288177
 20
151.4366138185
 30
0.0
 11
69.6677896575
 21
151.4000294963
 31
0.0
  0
SPLINE
  5
17B
330
1F
100
AcDbEntity
  8
0
  6
SLD-Сплошная
 62
     7
370
    25
100
AcDbSpline
210
0.0
220
0.0
230
1.0
 70
     8
 71
     3
 72
    24
 73
    20
 74
     0
 42
0.00000001
 43
0.00000001
 40
0.0
 40
0.0
 40
0.0
 40
0.0
 40
0.155323927892068
 40
0.155323927892068
 40
0.310869413346426
 40
0.310869413346426
 40
0.468091939075224
 40
0.468091939075224
 40
0.625314464804022
 40
0.625314464804022
 40
0.705718166886827
 40
0.705718166886827
 40
0.786121868969632
 40
0.786121868969632
 40
0.8664079881875599
 40
0.8664079881875599
 40
0.9331057423554869
 40
0.9331057423554869
 40
1.0
 40
1.0
 40
1.0
 40
1.0
 10
69.66778965745594
 20
151.4000294962824
 30
0.0
 10
69.65304753057313
 20
151.1307688846893
 30
0.0
 10
69.59798135074665
 20
150.9251649937719
 30
0.0
 10
69.40706481842115
 20
150.6425325932188
 30
0.0
 10
69.27842407096564
 20
150.572492127501
 30
0.0
 10
68.95496446348065
 20
150.572492127501
 30
0.0
 10
68.82618764924044
 20
150.6485875177337
 30
0.0
 10
68.63627436763383
 20
150.9529690786649
 30
0.0
 10
68.58901284321584
 20
151.1417441813576
 30
0.0
 10
68.58901284321584
 20
151.4812466916269
 30
0.0
 10
68.60288778616435
 20
151.593926404087
 30
0.0
 10
68.65838755795804
 20
151.81489571034
 30
0.0
 10
68.70434830647466
 20
151.9312338550226
 30
0.0
 10
68.83346423363824
 20
152.1754384337059
 30
0.0
 10
68.94022233659784
 20
152.343173323302
 30
0.0
 10
69.21408292993354
 20
152.7343176924794
 30
0.0
 10
69.29490056571704
 20
152.8538904615949
 30
0.0
 10
69.36524593697254
 20
152.979925918428
 30
0.0
 10
69.39506031012586
 20
153.0433972507323
 30
0.0
 10
69.41804068438424
 20
153.107053971408
 30
0.0
  0
LINE
  5
17C
330
1F
100
AcDbEntity
  8
0
  6
SLD-Сплошная
 62
     7
370
    25
100
AcDbLine
 10
69.4180406844
 20
153.1070539714
 30
0.0
 11
68.5868448834
 21
153.1070539714
 31
0.0
  0
LINE
  5
17D
330
1F
100
AcDbEntity
  8
0
  6
SLD-Сплошная
 62
     7
370
    25
100
AcDbLine
 10
67.8868448834
 20
141.3792530146
 30
0.0
 11
67.8868448834
 21
144.7037655918
 31
0.0
  0
LINE
  5
17E
330
1F
100
AcDbEntity
  8
0
  6
SLD-Сплошная
 62
     7
370
    25
100
AcDbLine
 10
69.2868448834
 20
144.7037655918
 30
0.0
 11
67.8868448834
 21
144.7037655918
 31
0.0
  0
LINE
  5
17F
330
1F
100
AcDbEntity
  8
0
  6
SLD-Сплошная
 62
     7
370
    25
100
AcDbLine
 10
69.2868448834
 20
140.618673665
 30
0.0
 11
69.2868448834
 21
144.7037655918
 31
0.0
  0
LINE
  5
180
330
1F
100
AcDbEntity
  8
0
  6
SLD-Сплошная
 62
     7
370
    25
100
AcDbLine
 10
75.4868448834
 20
144.7037655918
 30
0.0
 11
75.4868448834
 21
140.6186736643
 31
0.0
  0
LINE
  5
181
330
1F
100
AcDbEntity
  8
0
  6
SLD-Сплошная
 62
     7
370
    25
100
AcDbLine
 10
76.8868448834
 20
144.7037655918
 30
0.0
 11
75.4868448834
 21
144.7037655918
 31
0.0
  0
LINE
  5
182
330
1F
100
AcDbEntity
  8
0
  6
SLD-Сплошная
 62
     7
370
    25
100
AcDbLine
 10
76.8868448834
 20
141.3792530134
 30
0.0
 11
76.8868448834
 21
144.7037655918
 31
0.0
  0
LINE
  5
183
330
1F
100
AcDbEntity
  8
0
  6
SLD-Сплошная
 62
     7
370
    25
100
AcDbLine
 10
69.3868448997
 20
142.9936312898
 30
0.0
 11
69.4288050081
 21
142.9936312898
 31
0.0
  0
LINE
  5
184
330
1F
100
AcDbEntity
  8
0
  6
SLD-Сплошная
 62
     7
370
    25
100
AcDbLine
 10
69.4288050081
 20
142.9936312898
 30
0.0
 11
69.4288050081
 21
143.9936312898
 31
0.0
  0
LINE
  5
185
330
1F
100
AcDbEntity
  8
0
  6
SLD-Сплошная
 62
     7
370
    25
100
AcDbLine
 10
69.4288050081
 20
143.9936312898
 30
0.0
 11
75.3448847912
 21
143.9936312898
 31
0.0
  0
LINE
  5
186
330
1F
100
AcDbEntity
  8
0
  6
SLD-Сплошная
 62
     7
370
    25
100
AcDbLine
 10
75.3448847912
 20
143.9936312898
 30
0.0
 11
75.3448847912
 21
142.9936312898
 31
0.0
  0
LINE
  5
187
330
1F
100
AcDbEntity
  8
0
  6
SLD-Сплошная
 62
     7
370
    25
100
AcDbLine
 10
75.3448847912
 20
142.9936312898
 30
0.0
 11
75.3868448997
 21
142.9936312898
 31
0.0
  0
LINE
  5
188
330
1F
100
AcDbEntity
  8
0
  6
SLD-Сплошная
 62
     7
370
    25
100
AcDbLine
 10
75.3868448997
 20
141.4936312898
 30
0.0
 11
75.3868448997
 21
142.9936312898
 31
0.0
  0
LINE
  5
189
330
1F
100
AcDbEntity
  8
0
  6
SLD-Сплошная
 62
     7
370
    25
100
AcDbLine
 10
75.3868448997
 20
141.4936312898
 30
0.0
 11
69.3868448997
 21
141.4936312898
 31
0.0
  0
LINE
  5
18A
330
1F
100
AcDbEntity
  8
0
  6
SLD-Сплошная
 62
     7
370
    25
100
AcDbLine
 10
69.3868448997
 20
141.4936312898
 30
0.0
 11
69.3868448997
 21
142.9936312898
 31
0.0
  0
LINE
  5
18B
330
1F
100
AcDbEntity
  8
0
  6
SLD-Сплошная
 62
     7
370
    25
100
AcDbLine
 10
74.1368448997
 20
140.1873837971
 30
0.0
 11
74.1368448997
 21
141.4936312898
 31
0.0
  0
LINE
  5
18C
330
1F
100
AcDbEntity
  8
0
  6
SLD-Сплошная
 62
     7
370
    25
100
AcDbLine
 10
70.6368448997
 20
140.1873837902
 30
0.0
 11
70.6368448997
 21
141.4936312898
 31
0.0
  0
ARC
  5
18D
330
1F
100
AcDbEntity
  8
0
  6
SLD-Сплошная
 62
     7
370
    25
100
AcDbCircle
 10
72.3868448834
 20
158.7131064678
 30
0.0
 40
12.25000000000001
100
AcDbArc
 50
229.9272820636
 51
310.0727179462
  0
SPLINE
  5
18E
330
1F
100
AcDbEntity
  8
0
  6
SLD-Сплошная
 62
     7
370
    25
100
AcDbSpline
210
0.0
220
0.0
230
1.0
 70
     8
 71
     3
 72
    15
 73
    11
 74
     0
 42
0.00000001
 43
0.00000001
 40
0.0
 40
0.0
 40
0.0
 40
0.0
 40
0.1221339452457912
 40
0.2450830405046873
 40
0.3688491933934213
 40
0.4934342738352959
 40
0.618840114958937
 40
0.7450685139732772
 40
0.8721212330194255
 40
1.0
 40
1.0
 40
1.0
 40
1.0
 10
33.70963227955963
 20
122.7248120863016
 30
0.0
 10
33.68583227378095
 20
122.7628348627195
 30
0.0
 10
33.63807341551657
 20
122.8391341883015
 30
0.0
 10
33.57621828203586
 20
122.9597749424974
 30
0.0
 10
33.52176689697583
 20
123.084830679228
 30
0.0
 10
33.47585582059813
 20
123.2142505371401
 30
0.0
 10
33.43862320251909
 20
123.3473618925997
 30
0.0
 10
33.41071277442333
 20
123.4836196741024
 30
0.0
 10
33.39153850114197
 20
123.6223708321056
 30
0.0
 10
33.38701989939709
 20
123.7158553629937
 30
0.0
 10
33.38475327777016
 20
123.7627490861977
 30
0.0
  0
SPLINE
  5
18F
330
1F
100
AcDbEntity
  8
0
  6
SLD-Сплошная
 62
     7
370
    25
100
AcDbSpline
210
0.0
220
0.0
230
1.0
 70
     8
 71
     3
 72
    20
 73
    16
 74
     0
 42
0.00000001
 43
0.00000001
 40
0.0
 40
0.0
 40
0.0
 40
0.0
 40
0.0467208837576095
 40
0.094012377279952
 40
0.1444886183732609
 40
0.2004411857465762
 40
0.2815048339660002
 40
0.3699697076466143
 40
0.466966388021477
 40
0.5889734371934334
 40
0.7285914262994396
 40
0.800019174004662
 40
0.8688147242522624
 40
0.9353158516366562
 40
1.0
 40
1.0
 40
1.0
 40
1.0
 10
34.87582061091504
 20
124.7080592355254
 30
0.0
 10
34.84975845023478
 20
124.6834385544225
 30
0.0
 10
34.79731582746004
 20
124.6338964958276
 30
0.0
 10
34.70808980685686
 20
124.5672322848173
 30
0.0
 10
34.60821220091938
 20
124.5032470735487
 30
0.0
 10
34.48302723016587
 20
124.4300025004711
 30
0.0
 10
34.33098329739188
 20
124.3440048856832
 30
0.0
 10
34.15166533620833
 20
124.2449301569765
 30
0.0
 10
33.95290107623279
 20
124.1299399745016
 30
0.0
 10
33.738311155453
 20
124.0046895518199
 30
0.0
 10
33.57542114746737
 20
123.9061765136569
 30
0.0
 10
33.47589930845828
 20
123.8375377496521
 30
0.0
 10
33.42309377201872
 20
123.7972488314081
 30
0.0
 10
33.39076823539519
 20
123.770183132138
 30
0.0
 10
33.38681937201626
 20
123.7652063135174
 30
0.0
 10
33.38487228715316
 20
123.7627523698701
 30
0.0
  0
SPLINE
  5
190
330
1F
100
AcDbEntity
  8
0
  6
SLD-Сплошная
 62
     7
370
    25
100
AcDbSpline
210
0.0
220
0.0
230
1.0
 70
     8
 71
     3
 72
    26
 73
    22
 74
     0
 42
0.00000001
 43
0.00000001
 40
0.0
 40
0.0
 40
0.0
 40
0.0
 40
0.0420438914880814
 40
0.0831716663767734
 40
0.1234709504386175
 40
0.1630301070511103
 40
0.2019393797519663
 40
0.240281596091184
 40
0.2781305959136398
 40
0.3155478180239557
 40
0.3525787300911828
 40
0.389255474071545
 40
0.4255981946513884
 40
0.4616105395988285
 40
0.4972877147253998
 40
0.532614646639719
 40
0.6847772403049074
 40
0.809674289645023
 40
0.8784012273223691
 40
0.9401320666002265
 40
0.9999999999999999
 40
0.9999999999999999
 40
0.9999999999999999
 40
0.9999999999999999
 10
34.53028016462402
 20
122.010182849273
 30
0.0
 10
34.53157811666763
 20
122.0105139196362
 30
0.0
 10
34.53414573899096
 20
122.0111688464952
 30
0.0
 10
34.54773326902028
 20
122.0194310707086
 30
0.0
 10
34.56802838805623
 20
122.032304866698
 30
0.0
 10
34.59526677291284
 20
122.0498282698154
 30
0.0
 10
34.62877288782431
 20
122.071451503534
 30
0.0
 10
34.66803589269352
 20
122.0968542894019
 30
0.0
 10
34.71238107914726
 20
122.1255591591664
 30
0.0
 10
34.76114996881015
 20
122.15719796515
 30
0.0
 10
34.81368371237622
 20
122.1914675284963
 30
0.0
 10
34.86933271458329
 20
122.2281186875093
 30
0.0
 10
34.92745631886012
 20
122.2669581178581
 30
0.0
 10
34.98743164737753
 20
122.3077627652136
 30
0.0
 10
35.04863753212312
 20
122.3503301010007
 30
0.0
 10
35.17904211744902
 20
122.44307792155
 30
0.0
 10
35.36715957028994
 20
122.5902102682777
 30
0.0
 10
35.580020232801
 20
122.75596260592
 30
0.0
 10
35.74381000382869
 20
122.8676103518347
 30
0.0
 10
35.87038570873629
 20
122.9435715601639
 30
0.0
 10
35.95688601622025
 20
122.9798439993666
 30
0.0
 10
35.99947357309666
 20
122.9977023701924
 30
0.0
  0
SPLINE
  5
191
330
1F
100
AcDbEntity
  8
0
  6
SLD-Сплошная
 62
     7
370
    25
100
AcDbSpline
210
0.0
220
0.0
230
1.0
 70
     8
 71
     3
 72
    15
 73
    11
 74
     0
 42
0.00000001
 43
0.00000001
 40
0.0
 40
0.0
 40
0.0
 40
0.0
 40
0.1278810118087126
 40
0.2549353307083374
 40
0.3811646863206056
 40
0.5065708425667681
 40
0.6311555984990914
 40
0.7549207891549362
 40
0.8778682864341047
 40
1.0
 40
1.0
 40
1.0
 40
1.0
 10
34.53022927641325
 20
122.0100749342791
 30
0.0
 10
34.48816367852162
 20
122.0309875958776
 30
0.0
 10
34.4043044178052
 20
122.0726777281747
 30
0.0
 10
34.28485114649278
 20
122.145987288014
 30
0.0
 10
34.17119606397829
 20
122.2263052985257
 30
0.0
 10
34.06417373382671
 20
122.3139063080963
 30
0.0
 10
33.96402539680066
 20
122.407980559767
 30
0.0
 10
33.87131242813076
 20
122.5081305642302
 30
0.0
 10
33.78562458028944
 20
122.6132934793955
 30
0.0
 10
33.73490677247085
 20
122.6877217993561
 30
0.0
 10
33.70963227955962
 20
122.7248120863016
 30
0.0
  0
SPLINE
  5
192
330
1F
100
AcDbEntity
  8
0
  6
SLD-Сплошная
 62
     7
370
    25
100
AcDbSpline
210
0.0
220
0.0
230
1.0
 70
     8
 71
     3
 72
    15
 73
    11
 74
     0
 42
0.00000001
 43
0.00000001
 40
0.0
 40
0.0
 40
0.0
 40
0.0
 40
0.1221230455280913
 40
0.245064349450231
 40
0.3688258225463946
 40
0.4934093376952109
 40
0.6188167307816009
 40
0.7450498015802954
 40
0.8721103146158816
 40
1.0
 40
1.0
 40
1.0
 40
1.0
 10
111.064057519757
 20
173.2624504933052
 30
0.0
 10
111.0878691613752
 20
173.2244082945874
 30
0.0
 10
111.1356519892376
 20
173.1480690038326
 30
0.0
 10
111.1975334936923
 20
173.0273608128307
 30
0.0
 10
111.2520041299848
 20
172.9022306864968
 30
0.0
 10
111.2979253624583
 20
172.7727296497379
 30
0.0
 10
111.3351581505792
 20
172.6395312476292
 30
0.0
 10
111.3630572784088
 20
172.5031815471487
 30
0.0
 10
111.3822089216095
 20
172.3643344706235
 30
0.0
 10
111.3867012416332
 20
172.2707861642807
 30
0.0
 10
111.3889547068121
 20
172.2238598879312
 30
0.0
  0
SPLINE
  5
193
330
1F
100
AcDbEntity
  8
0
  6
SLD-Сплошная
 62
     7
370
    25
100
AcDbSpline
210
0.0
220
0.0
230
1.0
 70
     8
 71
     3
 72
    20
 73
    16
 74
     0
 42
0.00000001
 43
0.00000001
 40
0.0
 40
0.0
 40
0.0
 40
0.0
 40
0.0467328468525001
 40
0.0940320621265548
 40
0.1445088550185383
 40
0.2004530304398149
 40
0.2815210268818825
 40
0.3699821256574986
 40
0.4669702467170578
 40
0.5889820688688707
 40
0.7285978315606894
 40
0.8000228820877399
 40
0.8688161949392001
 40
0.9353159314208576
 40
0.9999999999999999
 40
0.9999999999999999
 40
0.9999999999999999
 40
0.9999999999999999
 10
109.8981861044701
 20
171.2785459186697
 30
0.0
 10
109.9242485412479
 20
171.303171483985
 30
0.0
 10
109.9766892727531
 20
171.3527210587188
 30
0.0
 10
110.0658988651412
 20
171.4194067819599
 30
0.0
 10
110.1657452410093
 20
171.4834108502415
 30
0.0
 10
110.2908922347889
 20
171.5566747748908
 30
0.0
 10
110.4428932882198
 20
171.6426832648881
 30
0.0
 10
110.6221673355845
 20
171.7417562034024
 30
0.0
 10
110.8208901457023
 20
171.8567306377438
 30
0.0
 10
111.0354412551358
 20
171.9819597702238
 30
0.0
 10
111.1983073588592
 20
172.0804544268655
 30
0.0
 10
111.2978154203545
 20
172.1490810047342
 30
0.0
 10
111.3506152214627
 20
172.1893634433108
 30
0.0
 10
111.3829389397803
 20
172.2164256973501
 30
0.0
 10
111.3868881595348
 20
172.2214026176851
 30
0.0
 10
111.3888354395464
 20
172.2238566359697
 30
0.0
  0
SPLINE
  5
194
330
1F
100
AcDbEntity
  8
0
  6
SLD-Сплошная
 62
     7
370
    25
100
AcDbSpline
210
0.0
220
0.0
230
1.0
 70
     8
 71
     3
 72
    26
 73
    22
 74
     0
 42
0.00000001
 43
0.00000001
 40
0.0
 40
0.0
 40
0.0
 40
0.0
 40
0.0420443342492229
 40
0.0831727315941033
 40
0.1234727375319166
 40
0.1630326304984223
 40
0.2019425707922264
 40
0.2402852941894194
 40
0.2781345646717248
 40
0.3155517385793334
 40
0.3525822107032722
 40
0.3892580614364235
 40
0.4255993764968463
 40
0.4616097467008232
 40
0.4972843337562635
 40
0.532608012309049
 40
0.6847962110586757
 40
0.8096810714106185
 40
0.8784143486888535
 40
0.9401406250819158
 40
1.0
 40
1.0
 40
1.0
 40
1.0
 10
110.2440009560892
 20
173.9768007696445
 30
0.0
 10
110.2427030648657
 20
173.976469714899
 30
0.0
 10
110.2401355570126
 20
173.9758148174442
 30
0.0
 10
110.2265455642307
 20
173.9675516833491
 30
0.0
 10
110.2062463860755
 20
173.9546763275062
 30
0.0
 10
110.1790023997692
 20
173.9371506597593
 30
0.0
 10
110.1454894269973
 20
173.9155244333437
 30
0.0
 10
110.1062185929423
 20
173.8901180571248
 30
0.0
 10
110.0618649835866
 20
173.8614091386093
 30
0.0
 10
110.0130873609743
 20
173.8297658467074
 30
0.0
 10
109.9605448613117
 20
173.7954914078041
 30
0.0
 10
109.9048873571289
 20
173.7588350443648
 30
0.0
 10
109.8467557671867
 20
173.7199901038841
 30
0.0
 10
109.7867732750482
 20
173.6791800208999
 30
0.0
 10
109.7255613894369
 20
173.6366073222956
 30
0.0
 10
109.5951228925847
 20
173.5438326012886
 30
0.0
 10
109.4069737734798
 20
173.3966510620621
 30
0.0
 10
109.194102108576
 20
173.2308129728229
 30
0.0
 10
109.0303182051063
 20
173.119115979122
 30
0.0
 10
108.9037417122792
 20
173.0431204062777
 30
0.0
 10
108.817235847846
 20
173.0068445004117
 30
0.0
 10
108.774647047968
 20
172.9889850488538
 30
0.0
  0
SPLINE
  5
195
330
1F
100
AcDbEntity
  8
0
  6
SLD-Сплошная
 62
     7
370
    25
100
AcDbSpline
210
0.0
220
0.0
230
1.0
 70
     8
 71
     3
 72
    15
 73
    11
 74
     0
 42
0.00000001
 43
0.00000001
 40
0.0
 40
0.0
 40
0.0
 40
0.0
 40
0.1278861653785806
 40
0.2549441677516715
 40
0.3811757355157293
 40
0.5065826314038547
 40
0.6311666533200398
 40
0.7549296351960926
 40
0.8778734478719573
 40
1.0
 40
1.0
 40
1.0
 40
1.0
 10
110.2440517697473
 20
173.9769084357389
 30
0.0
 10
110.2860875076242
 20
173.9559940673329
 30
0.0
 10
110.3698867690779
 20
173.9143007674238
 30
0.0
 10
110.4892530138088
 20
173.8410008876786
 30
0.0
 10
110.6028242205663
 20
173.7607031382715
 30
0.0
 10
110.7097671487157
 20
173.6731335450733
 30
0.0
 10
110.8098415308765
 20
173.5791009753569
 30
0.0
 10
110.9024872489124
 20
173.4790024836474
 30
0.0
 10
110.9881146103612
 20
173.3738995762431
 30
0.0
 10
111.0387995580057
 20
173.2995175045175
 30
0.0
 10
111.064057519757
 20
173.2624504933052
 30
0.0
  0
SPLINE
  5
196
330
1F
100
AcDbEntity
  8
0
  6
SLD-Сплошная
 62
     7
370
    25
100
AcDbSpline
210
0.0
220
0.0
230
1.0
 70
    24
 71
     3
 72
    10
 73
     6
 74
     0
 42
0.00000001
 43
0.00000001
 40
0.0
 40
0.0
 40
0.0
 40
0.0
 40
0.5
 40
0.5
 40
1.0
 40
1.0
 40
1.0
 40
1.0
 10
33.55502498755144
 20
124.1527798156591
 30
0.0
 10
33.55553797555154
 20
124.1532293554887
 30
0.0
 10
33.79619351953888
 20
124.3641197705249
 30
0.0
 10
34.1813337395787
 20
124.7016244857936
 30
0.0
 10
34.41251386649094
 20
124.904211436856
 30
0.0
 10
34.63178204877224
 20
125.0963597547353
 30
0.0
  0
SPLINE
  5
197
330
1F
100
AcDbEntity
  8
0
  6
SLD-Сплошная
 62
     7
370
    25
100
AcDbSpline
210
0.0
220
0.0
230
1.0
 70
    24
 71
     3
 72
    13
 73
     9
 74
     0
 42
0.00000001
 43
0.00000001
 40
0.0
 40
0.0
 40
0.0
 40
0.0
 40
0.2500000000000169
 40
0.3750000000000186
 40
0.3750000000000186
 40
0.5000000000000203
 40
0.5000000000000203
 40
1.0
 40
1.0
 40
1.0
 40
1.0
 10
108.5218351177148
 20
173.3706345913351
 30
0.0
 10
108.6968766705079
 20
173.452580212381
 30
0.0
 10
108.9249227785322
 20
173.5593398911595
 30
0.0
 10
109.1011945548084
 20
173.6418614407533
 30
0.0
 10
109.2072036652706
 20
173.6914895562193
 30
0.0
 10
109.2243956694482
 20
173.6995379849316
 30
0.0
 10
109.5821906479578
 20
173.867039536724
 30
0.0
 10
109.8173029402277
 20
173.9771072463513
 30
0.0
 10
109.8184746715205
 20
173.9776557918079
 30
0.0
  0
SPLINE
  5
198
330
1F
100
AcDbEntity
  8
0
  6
SLD-Сплошная
 62
     7
370
    25
100
AcDbSpline
210
0.0
220
0.0
230
1.0
 70
    24
 71
     3
 72
    10
 73
     6
 74
     0
 42
0.00000001
 43
0.00000001
 40
0.0
 40
0.0
 40
0.0
 40
0.0
 40
0.5
 40
0.5
 40
1.0
 40
1.0
 40
1.0
 40
1.0
 10
111.2186784507143
 20
171.8339925598392
 30
0.0
 10
111.2181653935352
 20
171.8335429593869
 30
0.0
 10
110.9775466039832
 20
171.6226847528675
 30
0.0
 10
110.5924576982784
 20
171.2852250051953
 30
0.0
 10
110.3612563363545
 20
171.0826194455427
 30
0.0
 10
110.142103649387
 20
170.8905723381081
 30
0.0
  0
SPLINE
  5
199
330
1F
100
AcDbEntity
  8
0
  6
SLD-Сплошная
 62
     7
370
    25
100
AcDbSpline
210
0.0
220
0.0
230
1.0
 70
    24
 71
     3
 72
    13
 73
     9
 74
     0
 42
0.00000001
 43
0.00000001
 40
0.0
 40
0.0
 40
0.0
 40
0.0
 40
0.2500000000000069
 40
0.3750000000000104
 40
0.3750000000000104
 40
0.5000000000000139
 40
0.5000000000000139
 40
1.0
 40
1.0
 40
1.0
 40
1.0
 10
36.25207863789814
 20
122.6163158321655
 30
0.0
 10
36.07716766900752
 20
122.5344313439124
 30
0.0
 10
35.84923681972741
 20
122.4277256234609
 30
0.0
 10
35.67295937653117
 20
122.3452014209012
 30
0.0
 10
35.56691961575246
 20
122.2955589565041
 30
0.0
 10
35.54964772264049
 20
122.2874731278244
 30
0.0
 10
35.19189739444661
 20
122.1199924790564
 30
0.0
 10
34.95683025741324
 20
122.009945908832
 30
0.0
 10
34.95565856292904
 20
122.0093973806074
 30
0.0
  0
LINE
  5
19A
330
1F
100
AcDbEntity
  8
0
  6
SLD-Сплошная
 62
     7
370
    25
100
AcDbLine
 10
99.3931858062
 20
167.1848376688
 30
0.0
 11
106.1742400566
 21
172.2600871061
 31
0.0
  0
LINE
  5
19B
330
1F
100
AcDbEntity
  8
0
  6
SLD-Сплошная
 62
     7
370
    25
100
AcDbLine
 10
36.5918263693
 20
126.8001040283
 30
0.0
 11
43.9635629511
 21
130.9712373714
 31
0.0
  0
LINE
  5
19C
330
1F
100
AcDbEntity
  8
0
  6
SLD-Сплошная
 62
     7
370
    25
100
AcDbLine
 10
45.3805039932
 20
128.8024249108
 30
0.0
 11
38.5979620254
 21
123.7260619982
 31
0.0
  0
LINE
  5
19D
330
1F
100
AcDbEntity
  8
0
  6
SLD-Сплошная
 62
     7
370
    25
100
AcDbLine
 10
108.1834807391
 20
169.1880736697
 30
0.0
 11
100.8101268482
 21
165.0160252082
 31
0.0
  0
ARC
  5
19E
330
1F
100
AcDbEntity
  8
0
  6
SLD-Сплошная
 62
     7
370
    25
100
AcDbCircle
 10
106.4738416551
 20
171.8597886148
 30
0.0
 40
0.500000000000032
100
AcDbArc
 50
115.0866218314
 51
126.8128521242
  0
SPLINE
  5
19F
330
1F
100
AcDbEntity
  8
0
  6
SLD-Сплошная
 62
     7
370
    25
100
AcDbSpline
210
0.0
220
0.0
230
1.0
 70
    24
 71
     3
 72
    10
 73
     6
 74
     0
 42
0.00000001
 43
0.00000001
 40
0.0
 40
0.0
 40
0.0
 40
0.0
 40
0.5
 40
0.5
 40
1.0
 40
1.0
 40
1.0
 40
1.0
 10
106.2618476715254
 20
172.3126225257517
 30
0.0
 10
106.2629386883141
 20
172.313133284751
 30
0.0
 10
106.4771269962556
 20
172.4134054409044
 30
0.0
 10
107.3307603159144
 20
172.8130334801245
 30
0.0
 10
107.9119643673704
 20
173.0851238848936
 30
0.0
 10
108.5218351177148
 20
173.3706345913351
 30
0.0
  0
SPLINE
  5
1A0
330
1F
100
AcDbEntity
  8
0
  6
SLD-Сплошная
 62
     7
370
    25
100
AcDbSpline
210
0.0
220
0.0
230
1.0
 70
    24
 71
     3
 72
    10
 73
     6
 74
     0
 42
0.00000001
 43
0.00000001
 40
0.0
 40
0.0
 40
0.0
 40
0.0
 40
0.5
 40
0.5
 40
1.0
 40
1.0
 40
1.0
 40
1.0
 10
34.63178204877224
 20
125.0963597547353
 30
0.0
 10
35.13766688692544
 20
125.5396749666393
 30
0.0
 10
35.62084882212264
 20
125.9630952509318
 30
0.0
 10
36.32977823055693
 20
126.5843417624349
 30
0.0
 10
36.50763622487114
 20
126.7402016508752
 30
0.0
 10
36.50852368742574
 20
126.7409793489219
 30
0.0
  0
ARC
  5
1A1
330
1F
100
AcDbEntity
  8
0
  6
SLD-Сплошная
 62
     7
370
    25
100
AcDbCircle
 10
36.8380562803
 20
126.3649364388
 30
0.0
 40
0.5000000000000185
100
AcDbArc
 50
119.5023871576
 51
131.2286174504
  0
ARC
  5
1A2
330
1F
100
AcDbEntity
  8
0
  6
SLD-Сплошная
 62
     7
370
    25
100
AcDbCircle
 10
38.2983604269
 20
124.1263604895
 30
0.0
 40
0.5000000000000191
100
AcDbArc
 50
295.0866218314
 51
306.8128521242
  0
SPLINE
  5
1A3
330
1F
100
AcDbEntity
  8
0
  6
SLD-Сплошная
 62
     7
370
    25
100
AcDbSpline
210
0.0
220
0.0
230
1.0
 70
    24
 71
     3
 72
    10
 73
     6
 74
     0
 42
0.00000001
 43
0.00000001
 40
0.0
 40
0.0
 40
0.0
 40
0.0
 40
0.5
 40
0.5
 40
1.0
 40
1.0
 40
1.0
 40
1.0
 10
38.51035441047844
 20
123.6735265785497
 30
0.0
 10
38.50926359494394
 20
123.6730159137676
 30
0.0
 10
38.29526306756314
 20
123.5728316669958
 30
0.0
 10
37.44237994902264
 20
123.173554834078
 30
0.0
 10
36.86165101502474
 20
122.9016868553248
 30
0.0
 10
36.25207863789814
 20
122.6163158321655
 30
0.0
  0
SPLINE
  5
1A4
330
1F
100
AcDbEntity
  8
0
  6
SLD-Сплошная
 62
     7
370
    25
100
AcDbSpline
210
0.0
220
0.0
230
1.0
 70
    24
 71
     3
 72
    10
 73
     6
 74
     0
 42
0.00000001
 43
0.00000001
 40
0.0
 40
0.0
 40
0.0
 40
0.0
 40
0.5
 40
0.5
 40
1.0
 40
1.0
 40
1.0
 40
1.0
 10
110.142103649387
 20
170.8905723381081
 30
0.0
 10
109.6364901158496
 20
170.4474948749053
 30
0.0
 10
109.1536792252941
 20
170.0243997431408
 30
0.0
 10
108.4453727475219
 20
169.4036991160318
 30
0.0
 10
108.2676707511164
 20
169.247975931127
 30
0.0
 10
108.2667834209004
 20
169.2471983490509
 30
0.0
  0
ARC
  5
1A5
330
1F
100
AcDbEntity
  8
0
  6
SLD-Сплошная
 62
     7
370
    25
100
AcDbCircle
 10
107.9372508281
 20
169.6232412592
 30
0.0
 40
0.5000000000000212
100
AcDbArc
 50
299.5023871576
 51
311.2286174504
  0
LINE
  5
1A6
330
1F
100
AcDbEntity
  8
0
  6
SLD-Сплошная
 62
     7
370
    25
100
AcDbLine
 10
100.8101268482
 20
165.0160252082
 30
0.0
 11
97.6650325902
 21
163.2364435071
 31
0.0
  0
LINE
  5
1A7
330
1F
100
AcDbEntity
  8
0
  6
SLD-Сплошная
 62
     7
370
    25
100
AcDbLine
 10
43.9635629511
 20
130.9712373714
 30
0.0
 11
47.1086572091
 21
132.7508190725
 31
0.0
  0
LINE
  5
1A8
330
1F
100
AcDbEntity
  8
0
  6
SLD-Сплошная
 62
     7
370
    25
100
AcDbLine
 10
96.5001015852
 20
165.0195218459
 30
0.0
 11
99.3931858062
 21
167.1848376688
 31
0.0
  0
LINE
  5
1A9
330
1F
100
AcDbEntity
  8
0
  6
SLD-Сплошная
 62
     7
370
    25
100
AcDbLine
 10
48.2735882141
 20
130.9677407337
 30
0.0
 11
45.3805039932
 21
128.8024249108
 31
0.0
  0
SPLINE
  5
1AA
330
1F
100
AcDbEntity
  8
0
  6
SLD-Сплошная
 62
     7
370
    25
100
AcDbSpline
210
0.0
220
0.0
230
1.0
 70
     8
 71
     3
 72
    18
 73
    14
 74
     0
 42
0.00000001
 43
0.00000001
 40
0.0
 40
0.0
 40
0.0
 40
0.0
 40
0.1250000000000012
 40
0.1250000000000012
 40
0.2500000000000024
 40
0.2500000000000024
 40
0.5000000000000016
 40
0.5000000000000016
 40
0.7500000000000008
 40
0.7500000000000008
 40
0.8750000000000004
 40
0.8750000000000004
 40
1.0
 40
1.0
 40
1.0
 40
1.0
 10
97.6650325902243
 20
163.2364435070654
 30
0.0
 10
97.54333765335655
 20
163.1675851311307
 30
0.0
 10
97.41274893412634
 20
163.1247078855373
 30
0.0
 10
97.14283466656235
 20
163.0894365514565
 30
0.0
 10
97.00682934183403
 20
163.0980078896085
 30
0.0
 10
96.61933351233004
 20
163.1960934378386
 30
0.0
 10
96.39016722476389
 20
163.3614022814508
 30
0.0
 10
96.10283764684989
 20
163.8006419547313
 30
0.0
 10
96.0428181130293
 20
164.0754792423161
 30
0.0
 10
96.1088953116354
 20
164.4727056437349
 30
0.0
 10
96.15561942388469
 20
164.6001709042036
 30
0.0
 10
96.2963355834976
 20
164.8332543444655
 30
0.0
 10
96.3893650554098
 20
164.9366415901453
 30
0.0
 10
96.50010158519179
 20
165.0195218458878
 30
0.0
  0
SPLINE
  5
1AB
330
1F
100
AcDbEntity
  8
0
  6
SLD-Сплошная
 62
     7
370
    25
100
AcDbSpline
210
0.0
220
0.0
230
1.0
 70
     8
 71
     3
 72
    18
 73
    14
 74
     0
 42
0.00000001
 43
0.00000001
 40
0.0
 40
0.0
 40
0.0
 40
0.0
 40
0.125
 40
0.125
 40
0.25
 40
0.25
 40
0.5
 40
0.5
 40
0.75
 40
0.75
 40
0.875
 40
0.875
 40
1.0
 40
1.0
 40
1.0
 40
1.0
 10
47.10865720909224
 20
132.7508190725412
 30
0.0
 10
47.23035214595994
 20
132.8196774484759
 30
0.0
 10
47.36094086519013
 20
132.8625546940692
 30
0.0
 10
47.63085513275419
 20
132.8978260281501
 30
0.0
 10
47.76686045748244
 20
132.8892546899982
 30
0.0
 10
48.15435628698643
 20
132.7911691417681
 30
0.0
 10
48.38352257455264
 20
132.625860298156
 30
0.0
 10
48.67085215246664
 20
132.1866206248754
 30
0.0
 10
48.73087168628737
 20
131.9117833372906
 30
0.0
 10
48.66479448768103
 20
131.5145569358718
 30
0.0
 10
48.61807037543183
 20
131.387091675403
 30
0.0
 10
48.47735421581883
 20
131.1540082351411
 30
0.0
 10
48.38432474390664
 20
131.0506209894614
 30
0.0
 10
48.27358821412474
 20
130.967740733719
 30
0.0
  0
LINE
  5
1AC
330
1F
100
AcDbEntity
  8
0
  6
SLD-Сплошная
 62
     7
370
    25
100
AcDbLine
 10
29.0168949088
 20
151.3547974248
 30
0.0
 11
30.888899816
 21
151.5493385095
 31
0.0
  0
ARC
  5
1AD
330
1F
100
AcDbEntity
  8
0
  6
SLD-Сплошная
 62
     7
370
    25
100
AcDbCircle
 10
72.3868448997
 20
147.9936312898
 30
0.0
 40
41.65000000000003
100
AcDbArc
 50
143.2126054334
 51
175.1026338485
  0
LINE
  5
1AE
330
1F
100
AcDbEntity
  8
0
  6
SLD-Сплошная
 62
     7
370
    25
100
AcDbLine
 10
37.7622295777
 20
174.3258551573
 30
0.0
 11
39.030895096
 21
172.935626252
 31
0.0
  0
ARC
  5
1AF
330
1F
100
AcDbEntity
  8
0
  6
SLD-Сплошная
 62
     7
370
    25
100
AcDbCircle
 10
72.3868448997
 20
147.9936312898
 30
0.0
 40
43.50000000000001
100
AcDbArc
 50
139.5684418355
 51
142.7467974464
  0
LINE
  5
1B0
330
1F
100
AcDbEntity
  8
0
  6
SLD-Сплошная
 62
     7
370
    25
100
AcDbLine
 10
39.2754621965
 20
176.2050888113
 30
0.0
 11
40.9042943606
 21
175.2621389782
 31
0.0
  0
ARC
  5
1B1
330
1F
100
AcDbEntity
  8
0
  6
SLD-Сплошная
 62
     7
370
    25
100
AcDbCircle
 10
72.3868448997
 20
147.9936312898
 30
0.0
 40
41.65
100
AcDbArc
 50
107.2126054333
 51
139.1026338485
  0
LINE
  5
1B2
330
1F
100
AcDbEntity
  8
0
  6
SLD-Сплошная
 62
     7
370
    25
100
AcDbLine
 10
59.8526355299
 20
189.6486861508
 30
0.0
 11
60.0618514466
 21
187.7782644587
 31
0.0
  0
ARC
  5
1B3
330
1F
100
AcDbEntity
  8
0
  6
SLD-Сплошная
 62
     7
370
    25
100
AcDbCircle
 10
72.3868448997
 20
147.9936312898
 30
0.0
 40
43.50000000000001
100
AcDbArc
 50
103.5684418354
 51
106.7467974463
  0
LINE
  5
1B4
330
1F
100
AcDbEntity
  8
0
  6
SLD-Сплошная
 62
     7
370
    25
100
AcDbLine
 10
62.1814522624
 20
190.2795622967
 30
0.0
 11
62.9449531586
 21
188.5592963324
 31
0.0
  0
ARC
  5
1B5
330
1F
100
AcDbEntity
  8
0
  6
SLD-Сплошная
 62
     7
370
    25
100
AcDbCircle
 10
72.3868448997
 20
147.9936312898
 30
0.0
 40
41.65000000000001
100
AcDbArc
 50
71.2126054333
 51
103.1026338484
  0
LINE
  5
1B6
330
1F
100
AcDbEntity
  8
0
  6
SLD-Сплошная
 62
     7
370
    25
100
AcDbLine
 10
86.7306834393
 20
189.0607019907
 30
0.0
 11
85.8005363851
 21
187.4245250247
 31
0.0
  0
ARC
  5
1B7
330
1F
100
AcDbEntity
  8
0
  6
SLD-Сплошная
 62
     7
370
    25
100
AcDbCircle
 10
72.3868448997
 20
147.9936312898
 30
0.0
 40
43.50000000000002
100
AcDbArc
 50
67.5684418354
 51
70.7467974463
  0
LINE
  5
1B8
330
1F
100
AcDbEntity
  8
0
  6
SLD-Сплошная
 62
     7
370
    25
100
AcDbLine
 10
88.9855554472
 20
188.2022473834
 30
0.0
 11
88.5920936836
 21
186.3617484165
 31
0.0
  0
ARC
  5
1B9
330
1F
100
AcDbEntity
  8
0
  6
SLD-Сплошная
 62
     7
370
    25
100
AcDbCircle
 10
72.3868448997
 20
147.9936312898
 30
0.0
 40
41.65000000000003
100
AcDbArc
 50
35.6840566534
 51
67.1026338484
  0
ARC
  5
1BA
330
1F
100
AcDbEntity
  8
0
  6
SLD-Сплошная
 62
     7
370
    25
100
AcDbCircle
 10
72.3868448997
 20
147.9936312898
 30
0.0
 40
41.65
100
AcDbArc
 50
359.2126054333
 51
30.6309242766
  0
LINE
  5
1BB
330
1F
100
AcDbEntity
  8
0
  6
SLD-Сплошная
 62
     7
370
    25
100
AcDbLine
 10
115.8764399682
 20
147.0422529338
 30
0.0
 11
114.0329119559
 21
147.4212688625
 31
0.0
  0
ARC
  5
1BC
330
1F
100
AcDbEntity
  8
0
  6
SLD-Сплошная
 62
     7
370
    25
100
AcDbCircle
 10
72.3868448997
 20
147.9936312898
 30
0.0
 40
43.50000000000001
100
AcDbArc
 50
355.5684418354
 51
358.7467974463
  0
LINE
  5
1BD
330
1F
100
AcDbEntity
  8
0
  6
SLD-Сплошная
 62
     7
370
    25
100
AcDbLine
 10
115.7567948905
 20
144.6324651547
 30
0.0
 11
113.8847899833
 21
144.43792407
 31
0.0
  0
ARC
  5
1BE
330
1F
100
AcDbEntity
  8
0
  6
SLD-Сплошная
 62
     7
370
    25
100
AcDbCircle
 10
72.3868448997
 20
147.9936312898
 30
0.0
 40
41.65000000000002
100
AcDbArc
 50
323.2126054334
 51
355.1026338484
  0
LINE
  5
1BF
330
1F
100
AcDbEntity
  8
0
  6
SLD-Сплошная
 62
     7
370
    25
100
AcDbLine
 10
107.0114602216
 20
121.6614074223
 30
0.0
 11
105.7427947033
 21
123.0516363276
 31
0.0
  0
ARC
  5
1C0
330
1F
100
AcDbEntity
  8
0
  6
SLD-Сплошная
 62
     7
370
    25
100
AcDbCircle
 10
72.3868448997
 20
147.9936312898
 30
0.0
 40
43.5
100
AcDbArc
 50
319.5684418355
 51
322.7467974464
  0
LINE
  5
1C1
330
1F
100
AcDbEntity
  8
0
  6
SLD-Сплошная
 62
     7
370
    25
100
AcDbLine
 10
105.4982276028
 20
119.7821737683
 30
0.0
 11
103.8693954387
 21
120.7251236013
 31
0.0
  0
ARC
  5
1C2
330
1F
100
AcDbEntity
  8
0
  6
SLD-Сплошная
 62
     7
370
    25
100
AcDbCircle
 10
72.3868448997
 20
147.9936312898
 30
0.0
 40
41.65000000000001
100
AcDbArc
 50
287.2126054334
 51
319.1026338485
  0
LINE
  5
1C3
330
1F
100
AcDbEntity
  8
0
  6
SLD-Сплошная
 62
     7
370
    25
100
AcDbLine
 10
84.9210542694
 20
106.3385764288
 30
0.0
 11
84.7118383528
 21
108.208998121
 31
0.0
  0
ARC
  5
1C4
330
1F
100
AcDbEntity
  8
0
  6
SLD-Сплошная
 62
     7
370
    25
100
AcDbCircle
 10
72.3868448997
 20
147.9936312898
 30
0.0
 40
43.5
100
AcDbArc
 50
283.5684418355
 51
286.7467974464
  0
LINE
  5
1C5
330
1F
100
AcDbEntity
  8
0
  6
SLD-Сплошная
 62
     7
370
    25
100
AcDbLine
 10
82.592237537
 20
105.7077002829
 30
0.0
 11
81.8287366408
 21
107.4279662472
 31
0.0
  0
ARC
  5
1C6
330
1F
100
AcDbEntity
  8
0
  6
SLD-Сплошная
 62
     7
370
    25
100
AcDbCircle
 10
72.3868448997
 20
147.9936312898
 30
0.0
 40
41.65000000000003
100
AcDbArc
 50
251.2126054335
 51
283.1026338485
  0
LINE
  5
1C7
330
1F
100
AcDbEntity
  8
0
  6
SLD-Сплошная
 62
     7
370
    25
100
AcDbLine
 10
58.0430063601
 20
106.9265605889
 30
0.0
 11
58.9731534143
 21
108.5627375549
 31
0.0
  0
ARC
  5
1C8
330
1F
100
AcDbEntity
  8
0
  6
SLD-Сплошная
 62
     7
370
    25
100
AcDbCircle
 10
72.3868448997
 20
147.9936312898
 30
0.0
 40
43.50000000000004
100
AcDbArc
 50
247.5684418356
 51
250.7467974465
  0
LINE
  5
1C9
330
1F
100
AcDbEntity
  8
0
  6
SLD-Сплошная
 62
     7
370
    25
100
AcDbLine
 10
55.7881343523
 20
107.7850151962
 30
0.0
 11
56.1815961158
 21
109.625514163
 31
0.0
  0
ARC
  5
1CA
330
1F
100
AcDbEntity
  8
0
  6
SLD-Сплошная
 62
     7
370
    25
100
AcDbCircle
 10
72.3868448997
 20
147.9936312898
 30
0.0
 40
41.65000000000003
100
AcDbArc
 50
215.6843150052
 51
247.1026338486
  0
ARC
  5
1CB
330
1F
100
AcDbEntity
  8
0
  6
SLD-Сплошная
 62
     7
370
    25
100
AcDbCircle
 10
72.3868448997
 20
147.9936312898
 30
0.0
 40
41.65000000000001
100
AcDbArc
 50
179.2126054335
 51
210.6311826284
  0
LINE
  5
1CC
330
1F
100
AcDbEntity
  8
0
  6
SLD-Сплошная
 62
     7
370
    25
100
AcDbLine
 10
28.8972498311
 20
148.9450096457
 30
0.0
 11
30.7407778434
 21
148.565993717
 31
0.0
  0
ARC
  5
1CD
330
1F
100
AcDbEntity
  8
0
  6
SLD-Сплошная
 62
     7
370
    25
100
AcDbCircle
 10
72.3868448997
 20
147.9936312898
 30
0.0
 40
43.50000000000001
100
AcDbArc
 50
175.5684418355
 51
178.7467974464
  0
ARC
  5
1CE
330
1F
100
AcDbEntity
  8
0
  6
SLD-Сплошная
 62
     7
370
    25
100
AcDbCircle
 10
72.3868448997
 20
147.9936312898
 30
0.0
 40
27.5
100
AcDbArc
 50
213.1576196409
 51
33.1576196409
  0
ARC
  5
1CF
330
1F
100
AcDbEntity
  8
0
  6
SLD-Сплошная
 62
     7
370
    25
100
AcDbCircle
 10
72.3868448997
 20
147.9936312898
 30
0.0
 40
27.5
100
AcDbArc
 50
96.9970466847
 51
213.1576196409
  0
ARC
  5
1D0
330
1F
100
AcDbEntity
  8
0
  6
SLD-Сплошная
 62
     7
370
    25
100
AcDbCircle
 10
72.3868448997
 20
147.9936312898
 30
0.0
 40
27.49999999999998
100
AcDbArc
 50
33.1576196409
 51
83.0029533798
  0
ARC
  5
1D1
330
1F
100
AcDbEntity
  8
0
  6
SLD-Сплошная
 62
     7
370
    25
100
AcDbCircle
 10
72.3868448997
 20
147.9936312898
 30
0.0
 40
43.50000000000001
100
AcDbArc
 50
70.7467974463
 51
103.5684418354
  0
ARC
  5
1D2
330
1F
100
AcDbEntity
  8
0
  6
SLD-Сплошная
 62
     7
370
    25
100
AcDbCircle
 10
72.3868448997
 20
147.9936312898
 30
0.0
 40
43.50000000000004
100
AcDbArc
 50
250.7467974465
 51
283.5684418355
  0
ARC
  5
1D3
330
1F
100
AcDbEntity
  8
0
  6
SLD-Сплошная
 62
     7
370
    25
100
AcDbCircle
 10
72.3868448997
 20
147.9936312898
 30
0.0
 40
43.50000000000001
100
AcDbArc
 50
35.2319545554
 51
67.5684418354
  0
ARC
  5
1D4
330
1F
100
AcDbEntity
  8
0
  6
SLD-Сплошная
 62
     7
370
    25
100
AcDbCircle
 10
72.3868448997
 20
147.9936312898
 30
0.0
 40
43.5
100
AcDbArc
 50
286.7467974464
 51
319.5684418355
  0
ARC
  5
1D5
330
1F
100
AcDbEntity
  8
0
  6
SLD-Сплошная
 62
     7
370
    25
100
AcDbCircle
 10
72.3868448997
 20
147.9936312898
 30
0.0
 40
43.50000000000003
100
AcDbArc
 50
142.7467974464
 51
175.5684418355
  0
ARC
  5
1D6
330
1F
100
AcDbEntity
  8
0
  6
SLD-Сплошная
 62
     7
370
    25
100
AcDbCircle
 10
72.3868448997
 20
147.9936312898
 30
0.0
 40
43.50000000000004
100
AcDbArc
 50
178.7467974464
 51
211.0832847265
  0
ARC
  5
1D7
330
1F
100
AcDbEntity
  8
0
  6
SLD-Сплошная
 62
     7
370
    25
100
AcDbCircle
 10
72.3868448997
 20
147.9936312898
 30
0.0
 40
43.49999999999998
100
AcDbArc
 50
106.7467974463
 51
139.5684418355
  0
ARC
  5
1D8
330
1F
100
AcDbEntity
  8
0
  6
SLD-Сплошная
 62
     7
370
    25
100
AcDbCircle
 10
72.3868448997
 20
147.9936312898
 30
0.0
 40
43.49999999999998
100
AcDbArc
 50
358.7467974463
 51
31.0827793859
  0
ARC
  5
1D9
330
1F
100
AcDbEntity
  8
0
  6
SLD-Сплошная
 62
     7
370
    25
100
AcDbCircle
 10
72.3868448997
 20
147.9936312898
 30
0.0
 40
43.50000000000002
100
AcDbArc
 50
215.2324598959
 51
247.5684418356
  0
ARC
  5
1DA
330
1F
100
AcDbEntity
  8
0
  6
SLD-Сплошная
 62
     7
370
    25
100
AcDbCircle
 10
72.3868448997
 20
147.9936312898
 30
0.0
 40
43.5
100
AcDbArc
 50
322.7467974464
 51
355.5684418354
  0
SPLINE
  5
1DB
330
1F
100
AcDbEntity
  8
0
  6
SLD-Сплошная
 62
     7
370
    25
100
AcDbSpline
210
0.0
220
0.0
230
1.0
 70
     8
 71
     3
 72
    38
 73
    34
 74
     0
 42
0.00000001
 43
0.00000001
 40
0.0
 40
0.0
 40
0.0
 40
0.0
 40
0.0624999999999999
 40
0.0624999999999999
 40
0.1249999999999998
 40
0.1249999999999998
 40
0.1874999999999998
 40
0.1874999999999998
 40
0.2499999999999998
 40
0.2499999999999998
 40
0.3124999999999997
 40
0.3124999999999997
 40
0.3749999999999997
 40
0.3749999999999997
 40
0.4374999999999998
 40
0.4374999999999998
 40
0.4999999999999998
 40
0.4999999999999998
 40
0.5624999999999998
 40
0.5624999999999998
 40
0.6249999999999998
 40
0.6249999999999998
 40
0.6874999999999998
 40
0.6874999999999998
 40
0.7499999999999998
 40
0.7499999999999998
 40
0.8124999999999999
 40
0.8124999999999999
 40
0.8749999999999999
 40
0.8749999999999999
 40
0.9374999999999999
 40
0.9374999999999999
 40
1.0
 40
1.0
 40
1.0
 40
1.0
 10
322.8859037632944
 20
147.9936312809706
 30
0.0
 10
322.8859037638078
 20
146.9477979476452
 30
0.0
 10
322.9507718041378
 20
145.8359499173134
 30
0.0
 10
323.2652835133196
 20
143.4875958308304
 30
0.0
 10
323.5150770994191
 20
142.2507512814538
 30
0.0
 10
324.2647304339437
 20
139.6805112819829
 30
0.0
 10
324.7649973166696
 20
138.3467727206996
 30
0.0
 10
326.0832147145961
 20
135.6427370358378
 30
0.0
 10
326.9019037695427
 20
134.2722979503866
 30
0.0
 10
328.9099037704584
 20
131.5949646182463
 30
0.0
 10
330.1001716134605
 20
130.2884520774769
 30
0.0
 10
332.8634167506572
 20
127.8768926868688
 30
0.0
 10
334.4371148441674
 20
126.7729853822869
 30
0.0
 10
337.9111632870896
 20
124.9201595474329
 30
0.0
 10
339.8113238897351
 20
124.1728896723479
 30
0.0
 10
343.8035605756656
 20
123.1589882927033
 30
0.0
 10
345.8942371039333
 20
122.8936312911205
 30
0.0
 10
350.0775704365389
 20
122.8936312915762
 30
0.0
 10
352.1682469647454
 20
123.1589882936145
 30
0.0
 10
356.1604836504421
 20
124.1728896741281
 30
0.0
 10
358.0606442529153
 20
124.9201595496263
 30
0.0
 10
361.5346926954102
 20
126.7729853852341
 30
0.0
 10
363.1083907886659
 20
127.8768926901567
 30
0.0
 10
365.8716359253064
 20
130.2884520813608
 30
0.0
 10
367.0619037680071
 20
131.5949646223856
 30
0.0
 10
369.0699037683053
 20
134.2722979549542
 30
0.0
 10
369.8885928229359
 20
135.6427370405783
 30
0.0
 10
371.2068102202388
 20
138.3467727257151
 30
0.0
 10
371.7070771026571
 20
139.6805112871006
 30
0.0
 10
372.4567304365889
 20
142.2507512867203
 30
0.0
 10
372.7065240224032
 20
143.4875958361435
 30
0.0
 10
373.0210357310434
 20
145.8359499226786
 30
0.0
 10
373.0859037711169
 20
146.9477979530158
 30
0.0
 10
373.085903771389
 20
147.9936312863324
 30
0.0
  0
SPLINE
  5
1DC
330
1F
100
AcDbEntity
  8
0
  6
SLD-Сплошная
 62
     7
370
    25
100
AcDbSpline
210
0.0
220
0.0
230
1.0
 70
     8
 71
     3
 72
    15
 73
    11
 74
     0
 42
0.00000001
 43
0.00000001
 40
0.0
 40
0.0
 40
0.0
 40
0.0
 40
0.1216825665076521
 40
0.2436307783991804
 40
0.3681576437340466
 40
0.497437859998419
 40
0.6220796061353258
 40
0.7489521209507644
 40
0.8757076413016499
 40
1.0
 40
1.0
 40
1.0
 40
1.0
 10
372.3758609825612
 20
152.7102020942876
 30
0.0
 10
372.3806240413977
 20
152.6854278743896
 30
0.0
 10
372.3901605573112
 20
152.635825349959
 30
0.0
 10
372.4039432538689
 20
152.5622507350034
 30
0.0
 10
372.4172176992473
 20
152.4900145909144
 30
0.0
 10
372.4296040119698
 20
152.4211567332597
 30
0.0
 10
372.4410047008254
 20
152.356474469303
 30
0.0
 10
372.4510974661615
 20
152.2980165558229
 30
0.0
 10
372.4600773053942
 20
152.2449878194551
 30
0.0
 10
372.4648673901034
 20
152.2159398004784
 30
0.0
 10
372.4672389334486
 20
152.2015582936208
 30
0.0
  0
SPLINE
  5
1DD
330
1F
100
AcDbEntity
  8
0
  6
SLD-Сплошная
 62
     7
370
    25
100
AcDbSpline
210
0.0
220
0.0
230
1.0
 70
     8
 71
     3
 72
     8
 73
     4
 74
     0
 42
0.00000001
 43
0.00000001
 40
0.0
 40
0.0
 40
0.0
 40
0.0
 40
1.0
 40
1.0
 40
1.0
 40
1.0
 10
372.2528051153165
 20
153.3071553112594
 30
0.0
 10
372.2962628243574
 20
153.1086841068366
 30
0.0
 10
372.3372855624861
 20
152.9096797356409
 30
0.0
 10
372.3758609825612
 20
152.7102020942876
 30
0.0
  0
SPLINE
  5
1DE
330
1F
100
AcDbEntity
  8
0
  6
SLD-Сплошная
 62
     7
370
    25
100
AcDbSpline
210
0.0
220
0.0
230
1.0
 70
     8
 71
     3
 72
    13
 73
     9
 74
     0
 42
0.00000001
 43
0.00000001
 40
0.0
 40
0.0
 40
0.0
 40
0.0
 40
0.1262816069169928
 40
0.2509841215629187
 40
0.375907396296794
 40
0.5028418896245199
 40
0.7566826630565239
 40
1.0
 40
1.0
 40
1.0
 40
1.0
 10
372.1350149391242
 20
153.8128108544636
 30
0.0
 10
372.1385896587092
 20
153.7984057060786
 30
0.0
 10
372.1456943976872
 20
153.7697755389335
 30
0.0
 10
372.1583462872578
 20
153.7178374091264
 30
0.0
 10
372.1722676948044
 20
153.659866811255
 30
0.0
 10
372.1924289063878
 20
153.5745584779571
 30
0.0
 10
372.2194733696207
 20
153.4577845299423
 30
0.0
 10
372.2418524339984
 20
153.3566514836018
 30
0.0
 10
372.2528051153165
 20
153.3071553112594
 30
0.0
  0
ARC
  5
1DF
330
1F
100
AcDbEntity
  8
0
  6
SLD-Сплошная
 62
     7
370
    25
100
AcDbCircle
 10
347.9859037673
 20
147.9936312916
 30
0.0
 40
25.10000000404733
100
AcDbArc
 50
359.9999999879
 51
180.0000000244
  0
SPLINE
  5
1E0
330
1F
100
AcDbEntity
  8
0
  6
SLD-Сплошная
 62
     7
370
    25
100
AcDbSpline
210
0.0
220
0.0
230
1.0
 70
     8
 71
     3
 72
     8
 73
     4
 74
     0
 42
0.00000001
 43
0.00000001
 40
0.0
 40
0.0
 40
0.0
 40
0.0
 40
1.0
 40
1.0
 40
1.0
 40
1.0
 10
372.8034610809959
 20
149.0913049785264
 30
0.0
 10
372.8124386989533
 20
148.8883301558076
 30
0.0
 10
372.818926093209
 20
148.6852451900136
 30
0.0
 10
372.8229213111196
 20
148.4821112059304
 30
0.0
  0
SPLINE
  5
1E1
330
1F
100
AcDbEntity
  8
0
  6
SLD-Сплошная
 62
     7
370
    25
100
AcDbSpline
210
0.0
220
0.0
230
1.0
 70
     8
 71
     3
 72
    13
 73
     9
 74
     0
 42
0.00000001
 43
0.00000001
 40
0.0
 40
0.0
 40
0.0
 40
0.0
 40
0.1264140697708486
 40
0.2511657166849474
 40
0.37605827271982
 40
0.5028890560622683
 40
0.7566496696438884
 40
1.0
 40
1.0
 40
1.0
 40
1.0
 10
372.7737758493109
 20
149.6072665721805
 30
0.0
 10
372.7748343203153
 20
149.59255749505
 30
0.0
 10
372.7769373427788
 20
149.5633327742105
 30
0.0
 10
372.7805234970056
 20
149.5103146828449
 30
0.0
 10
372.7843313486393
 20
149.4511607753435
 30
0.0
 10
372.7896197955212
 20
149.3641203496906
 30
0.0
 10
372.7963261491221
 20
149.2449275852683
 30
0.0
 10
372.8011162074841
 20
149.141792577809
 30
0.0
 10
372.8034610809959
 20
149.0913049785264
 30
0.0
  0
ARC
  5
1E2
330
1F
100
AcDbEntity
  8
0
  6
SLD-Сплошная
 62
     7
370
    25
100
AcDbCircle
 10
347.9859037673
 20
147.9936312916
 30
0.0
 40
28.05000000000007
100
AcDbArc
 50
0.0
 51
180.0
  0
ARC
  5
1E3
330
1F
100
AcDbEntity
  8
0
  6
SLD-Сплошная
 62
     7
370
    25
100
AcDbCircle
 10
347.9859037673
 20
118.2936312916
 30
0.0
 40
3.0
100
AcDbArc
 50
180.0
 51
0.0
  0
LINE
  5
1E4
330
1F
100
AcDbEntity
  8
0
  6
SLD-Сплошная
 62
     7
370
    25
100
AcDbLine
 10
344.9859037673
 20
120.1045205134
 30
0.0
 11
344.9859037673
 21
118.2936312916
 31
0.0
  0
ARC
  5
1E5
330
1F
100
AcDbEntity
  8
0
  6
SLD-Сплошная
 62
     7
370
    25
100
AcDbCircle
 10
347.9859037673
 20
147.9936312916
 30
0.0
 40
28.05000000000007
100
AcDbArc
 50
276.1396339249
 51
0.0
  0
ARC
  5
1E6
330
1F
100
AcDbEntity
  8
0
  6
SLD-Сплошная
 62
     7
370
    25
100
AcDbCircle
 10
347.9859037673
 20
147.9936312916
 30
0.0
 40
28.04999999999998
100
AcDbArc
 50
180.0
 51
263.8603660751
  0
LINE
  5
1E7
330
1F
100
AcDbEntity
  8
0
  6
SLD-Сплошная
 62
     7
370
    25
100
AcDbLine
 10
350.9859037673
 20
118.2936312916
 30
0.0
 11
350.9859037673
 21
120.1045205134
 31
0.0
  0
ARC
  5
1E8
330
1F
100
AcDbEntity
  8
0
  6
SLD-Сплошная
 62
     7
370
    25
100
AcDbCircle
 10
347.9859037673
 20
147.9936312916
 30
0.0
 40
33.75000000000001
100
AcDbArc
 50
180.0
 51
258.5091201758
  0
ARC
  5
1E9
330
1F
100
AcDbEntity
  8
0
  6
SLD-Сплошная
 62
     7
370
    25
100
AcDbCircle
 10
347.9859037673
 20
147.9936312916
 30
0.0
 40
33.75
100
AcDbArc
 50
0.0
 51
180.0
  0
ARC
  5
1EA
330
1F
100
AcDbEntity
  8
0
  6
SLD-Сплошная
 62
     7
370
    25
100
AcDbCircle
 10
347.9859037673
 20
147.9936312916
 30
0.0
 40
33.75000000000002
100
AcDbArc
 50
281.4908798242
 51
0.0
  0
ARC
  5
1EB
330
1F
100
AcDbEntity
  8
0
  6
SLD-Сплошная
 62
     7
370
    25
100
AcDbCircle
 10
347.9859037673
 20
118.2436312916
 30
0.0
 40
7.500000000000032
100
AcDbArc
 50
206.3042223302
 51
333.6957776698
  0
SPLINE
  5
1EC
330
1F
100
AcDbEntity
  8
0
  6
SLD-Сплошная
 62
     7
370
    25
100
AcDbSpline
210
0.0
220
0.0
230
1.0
 70
     8
 71
     3
 72
    14
 73
    10
 74
     0
 42
0.00000001
 43
0.00000001
 40
0.0
 40
0.0
 40
0.0
 40
0.0
 40
0.0668080338523264
 40
0.2510198506850909
 40
0.5008117767711545
 40
0.6295515233722331
 40
0.7504813899573591
 40
0.8791588802991095
 40
1.0
 40
1.0
 40
1.0
 40
1.0
 10
372.5230452285118
 20
148.4758331150617
 30
0.0
 10
372.532785420727
 20
148.4660234300346
 30
0.0
 10
372.5693825401829
 20
148.42916520313
 30
0.0
 10
372.6434580651523
 20
148.3566929097061
 30
0.0
 10
372.717322295539
 20
148.2659049109615
 30
0.0
 10
372.7702099435694
 20
148.1768209478304
 30
0.0
 10
372.8013044524254
 20
148.1048222101695
 30
0.0
 10
372.8221418677816
 20
148.0304642356069
 30
0.0
 10
372.82488282633
 20
147.9787774611674
 30
0.0
 10
372.8262102643915
 20
147.9537457102454
 30
0.0
  0
SPLINE
  5
1ED
330
1F
100
AcDbEntity
  8
0
  6
SLD-Сплошная
 62
     7
370
    25
100
AcDbSpline
210
0.0
220
0.0
230
1.0
 70
     8
 71
     3
 72
    10
 73
     6
 74
     0
 42
0.00000001
 43
0.00000001
 40
0.0
 40
0.0
 40
0.0
 40
0.0
 40
0.5
 40
0.5
 40
1.0
 40
1.0
 40
1.0
 40
1.0
 10
371.9597381843416
 20
153.2430508326433
 30
0.0
 10
372.0286311664957
 20
153.2581359525431
 30
0.0
 10
372.1092598919872
 20
153.2757907840755
 30
0.0
 10
372.2235840809228
 20
153.3008237272399
 30
0.0
 10
372.2524356860834
 20
153.3071412056828
 30
0.0
 10
372.2527911577012
 20
153.3072190414413
 30
0.0
  0
SPLINE
  5
1EE
330
1F
100
AcDbEntity
  8
0
  6
SLD-Сплошная
 62
     7
370
    25
100
AcDbSpline
210
0.0
220
0.0
230
1.0
 70
    24
 71
     3
 72
    10
 73
     6
 74
     0
 42
0.00000001
 43
0.00000001
 40
0.0
 40
0.0
 40
0.0
 40
0.0
 40
0.5
 40
0.5
 40
1.0
 40
1.0
 40
1.0
 40
1.0
 10
372.5037552243415
 20
149.0781137146433
 30
0.0
 10
372.5742115341492
 20
149.081230163594
 30
0.0
 10
372.6566698962079
 20
149.0848774916638
 30
0.0
 10
372.7735883430778
 20
149.0900490706782
 30
0.0
 10
372.803094652191
 20
149.0913542044252
 30
0.0
 10
372.8034581901542
 20
149.0913702845865
 30
0.0
  0
SPLINE
  5
1EF
330
1F
100
AcDbEntity
  8
0
  6
SLD-Сплошная
 62
     7
370
    25
100
AcDbSpline
210
0.0
220
0.0
230
1.0
 70
     8
 71
     3
 72
    15
 73
    11
 74
     0
 42
0.00000001
 43
0.00000001
 40
0.0
 40
0.0
 40
0.0
 40
0.0
 40
0.0926779270541614
 40
0.1909367566061931
 40
0.2927503728474891
 40
0.3959027377896761
 40
0.4989366780885207
 40
0.6152940490503974
 40
0.7493061099059531
 40
1.0
 40
1.0
 40
1.0
 40
1.0
 10
372.1349135090205
 20
153.8127883460168
 30
0.0
 10
372.1381893099057
 20
153.7941358357246
 30
0.0
 10
372.1449381746698
 20
153.755707593629
 30
0.0
 10
372.145419448318
 20
153.6957200401525
 30
0.0
 10
372.1389184203826
 20
153.6340783100489
 30
0.0
 10
372.1249551979149
 20
153.5726558926497
 30
0.0
 10
372.1041287054803
 20
153.5101501210499
 30
0.0
 10
372.0761595914378
 20
153.4435941313424
 30
0.0
 10
372.0285952559502
 20
153.3529662487767
 30
0.0
 10
371.9869054041409
 20
153.2864174208479
 30
0.0
 10
371.9597381843416
 20
153.2430508326433
 30
0.0
  0
SPLINE
  5
1F0
330
1F
100
AcDbEntity
  8
0
  6
SLD-Сплошная
 62
     7
370
    25
100
AcDbSpline
210
0.0
220
0.0
230
1.0
 70
     8
 71
     3
 72
    14
 73
    10
 74
     0
 42
0.00000001
 43
0.00000001
 40
0.0
 40
0.0
 40
0.0
 40
0.0
 40
0.1214481970403613
 40
0.2473429082311824
 40
0.3682687582280817
 40
0.4979392834100064
 40
0.6698525816224917
 40
0.8392318647766585
 40
1.0
 40
1.0
 40
1.0
 40
1.0
 10
372.0826327249662
 20
152.6490901026475
 30
0.0
 10
372.1033618937351
 20
152.6359278844846
 30
0.0
 10
372.1455791766054
 20
152.6091215473095
 30
0.0
 10
372.2057600065457
 20
152.5651992902995
 30
0.0
 10
372.2647805821559
 20
152.5171283816242
 30
0.0
 10
372.3277785574863
 20
152.459252206452
 30
0.0
 10
372.3889344702218
 20
152.3859674943313
 30
0.0
 10
372.4413761700914
 20
152.2977902322853
 30
0.0
 10
372.458700219229
 20
152.2330598111955
 30
0.0
 10
372.4671363144984
 20
152.2015387738905
 30
0.0
  0
SPLINE
  5
1F1
330
1F
100
AcDbEntity
  8
0
  6
SLD-Сплошная
 62
     7
370
    25
100
AcDbSpline
210
0.0
220
0.0
230
1.0
 70
     8
 71
     3
 72
    15
 73
    11
 74
     0
 42
0.00000001
 43
0.00000001
 40
0.0
 40
0.0
 40
0.0
 40
0.0
 40
0.0954127418367749
 40
0.1947999184040133
 40
0.2963489035481201
 40
0.3982360253823981
 40
0.4994949651179132
 40
0.6208779997647867
 40
0.7495756957095859
 40
1.0
 40
1.0
 40
1.0
 40
1.0
 10
372.7736705918184
 20
149.6072616421436
 30
0.0
 10
372.7736891418215
 20
149.5878263261574
 30
0.0
 10
372.7737270145313
 20
149.5481461126411
 30
0.0
 10
372.7635367748711
 20
149.4884708105149
 30
0.0
 10
372.7463510901096
 20
149.4292174629194
 30
0.0
 10
372.7222225997263
 20
149.3719897528987
 30
0.0
 10
372.6908252732201
 20
149.3138521868623
 30
0.0
 10
372.6518840079114
 20
149.253830247212
 30
0.0
 10
372.5895562724098
 20
149.1732277587528
 30
0.0
 10
372.5378879791044
 20
149.1159487931738
 30
0.0
 10
372.5037591329893
 20
149.0781138875321
 30
0.0
  0
ARC
  5
1F2
330
1F
100
AcDbEntity
  8
0
  6
SLD-Сплошная
 62
     7
370
    25
100
AcDbCircle
 10
355.7740583774
 20
158.7131064704
 30
0.0
 40
2.500000000000074
100
AcDbArc
 50
93.1576196409
 51
273.1576196409
  0
ARC
  5
1F3
330
1F
100
AcDbEntity
  8
0
  6
SLD-Сплошная
 62
     7
370
    25
100
AcDbCircle
 10
355.7740583774
 20
158.7131064704
 30
0.0
 40
2.500000000000074
100
AcDbArc
 50
273.1576196409
 51
93.1576196409
  0
ARC
  5
1F4
330
1F
100
AcDbEntity
  8
0
  6
SLD-Сплошная
 62
     7
370
    25
100
AcDbCircle
 10
340.1977491917
 20
158.7131064704
 30
0.0
 40
2.500000000000093
100
AcDbArc
 50
83.1576196409
 51
263.1576196409
  0
ARC
  5
1F5
330
1F
100
AcDbEntity
  8
0
  6
SLD-Сплошная
 62
     7
370
    25
100
AcDbCircle
 10
340.1977491917
 20
158.7131064704
 30
0.0
 40
2.500000000000093
100
AcDbArc
 50
263.1576196409
 51
83.1576196409
  0
ARC
  5
1F6
330
1F
100
AcDbEntity
  8
0
  6
SLD-Сплошная
 62
     7
370
    25
100
AcDbCircle
 10
340.1977491754
 20
158.7131064678
 30
0.0
 40
4.985714285151772
100
AcDbArc
 50
270.0
 51
90.0
  0
ARC
  5
1F7
330
1F
100
AcDbEntity
  8
0
  6
SLD-Сплошная
 62
     7
370
    25
100
AcDbCircle
 10
340.1977491754
 20
158.7131064678
 30
0.0
 40
4.5
100
AcDbArc
 50
270.0
 51
90.0
  0
ARC
  5
1F8
330
1F
100
AcDbEntity
  8
0
  6
SLD-Сплошная
 62
     7
370
    25
100
AcDbCircle
 10
340.1977491754
 20
158.7131064678
 30
0.0
 40
4.5
100
AcDbArc
 50
90.0
 51
139.9491534308
  0
ARC
  5
1F9
330
1F
100
AcDbEntity
  8
0
  6
SLD-Сплошная
 62
     7
370
    25
100
AcDbCircle
 10
340.1977491754
 20
158.7131064678
 30
0.0
 40
4.5
100
AcDbArc
 50
220.0508465693
 51
270.0
  0
ARC
  5
1FA
330
1F
100
AcDbEntity
  8
0
  6
SLD-Сплошная
 62
     7
370
    25
100
AcDbCircle
 10
347.9859037683
 20
158.7131064678
 30
0.0
 40
11.59999999999997
100
AcDbArc
 50
180.0
 51
194.4550793645
  0
ARC
  5
1FB
330
1F
100
AcDbEntity
  8
0
  6
SLD-Сплошная
 62
     7
370
    25
100
AcDbCircle
 10
347.9859037683
 20
158.7131064678
 30
0.0
 40
11.59999999999997
100
AcDbArc
 50
165.5449206355
 51
180.0
  0
ARC
  5
1FC
330
1F
100
AcDbEntity
  8
0
  6
SLD-Сплошная
 62
     7
370
    25
100
AcDbCircle
 10
340.1977491754
 20
158.7131064678
 30
0.0
 40
4.985714285452726
100
AcDbArc
 50
90.0
 51
129.1662296219
  0
SPLINE
  5
1FD
330
1F
100
AcDbEntity
  8
0
  6
SLD-Сплошная
 62
     7
370
    25
100
AcDbSpline
210
0.0
220
0.0
230
1.0
 70
     8
 71
     3
 72
     8
 73
     4
 74
     0
 42
0.00000001
 43
0.00000001
 40
0.0
 40
0.0
 40
0.0
 40
0.0
 40
1.0
 40
1.0
 40
1.0
 40
1.0
 10
336.7531174980253
 20
161.6087087553149
 30
0.0
 10
336.8458503988472
 20
161.968443536451
 30
0.0
 10
336.9445759579892
 20
162.2834157272069
 30
0.0
 10
337.0489094522434
 20
162.5786148860654
 30
0.0
  0
ARC
  5
1FE
330
1F
100
AcDbEntity
  8
0
  6
SLD-Сплошная
 62
     7
370
    25
100
AcDbCircle
 10
340.1977491754
 20
158.7131064678
 30
0.0
 40
4.985714285452691
100
AcDbArc
 50
230.8337703781
 51
270.0
  0
SPLINE
  5
1FF
330
1F
100
AcDbEntity
  8
0
  6
SLD-Сплошная
 62
     7
370
    25
100
AcDbSpline
210
0.0
220
0.0
230
1.0
 70
     8
 71
     3
 72
     8
 73
     4
 74
     0
 42
0.00000001
 43
0.00000001
 40
0.0
 40
0.0
 40
0.0
 40
0.0
 40
1.0
 40
1.0
 40
1.0
 40
1.0
 10
337.0489094522435
 20
154.8475980495636
 30
0.0
 10
336.9445759579899
 20
155.1427972084202
 30
0.0
 10
336.8458503988467
 20
155.4577693991803
 30
0.0
 10
336.7531174980253
 20
155.8175041803141
 30
0.0
  0
ARC
  5
200
330
1F
100
AcDbEntity
  8
0
  6
SLD-Сплошная
 62
     7
370
    25
100
AcDbCircle
 10
355.7740583611
 20
158.7131064678
 30
0.0
 40
4.499999999999972
100
AcDbArc
 50
270.0
 51
319.9491534307
  0
ARC
  5
201
330
1F
100
AcDbEntity
  8
0
  6
SLD-Сплошная
 62
     7
370
    25
100
AcDbCircle
 10
355.7740583611
 20
158.7131064678
 30
0.0
 40
4.5
100
AcDbArc
 50
90.0
 51
270.0
  0
ARC
  5
202
330
1F
100
AcDbEntity
  8
0
  6
SLD-Сплошная
 62
     7
370
    25
100
AcDbCircle
 10
355.7740583611
 20
158.7131064678
 30
0.0
 40
4.5
100
AcDbArc
 50
40.0508465693
 51
90.0
  0
ARC
  5
203
330
1F
100
AcDbEntity
  8
0
  6
SLD-Сплошная
 62
     7
370
    25
100
AcDbCircle
 10
347.9859037683
 20
158.7131064678
 30
0.0
 40
11.60000000000002
100
AcDbArc
 50
345.5449206355
 51
0.0
  0
ARC
  5
204
330
1F
100
AcDbEntity
  8
0
  6
SLD-Сплошная
 62
     7
370
    25
100
AcDbCircle
 10
347.9859037683
 20
158.7131064678
 30
0.0
 40
11.60000000000002
100
AcDbArc
 50
0.0
 51
14.4550793645
  0
ARC
  5
205
330
1F
100
AcDbEntity
  8
0
  6
SLD-Сплошная
 62
     7
370
    25
100
AcDbCircle
 10
355.7740583611
 20
158.7131064678
 30
0.0
 40
4.985714285151744
100
AcDbArc
 50
90.0
 51
270.0
  0
ARC
  5
206
330
1F
100
AcDbEntity
  8
0
  6
SLD-Сплошная
 62
     7
370
    25
100
AcDbCircle
 10
355.7740583611
 20
158.7131064678
 30
0.0
 40
4.985714285452687
100
AcDbArc
 50
270.0
 51
309.1662296219
  0
SPLINE
  5
207
330
1F
100
AcDbEntity
  8
0
  6
SLD-Сплошная
 62
     7
370
    25
100
AcDbSpline
210
0.0
220
0.0
230
1.0
 70
     8
 71
     3
 72
     8
 73
     4
 74
     0
 42
0.00000001
 43
0.00000001
 40
0.0
 40
0.0
 40
0.0
 40
0.0
 40
1.0
 40
1.0
 40
1.0
 40
1.0
 10
359.2186900384812
 20
155.8175041803138
 30
0.0
 10
359.1259571376593
 20
155.4577693991777
 30
0.0
 10
359.0272315785163
 20
155.1427972084188
 30
0.0
 10
358.922898084262
 20
154.8475980495606
 30
0.0
  0
ARC
  5
208
330
1F
100
AcDbEntity
  8
0
  6
SLD-Сплошная
 62
     7
370
    25
100
AcDbCircle
 10
355.7740583611
 20
158.7131064678
 30
0.0
 40
4.985714285452709
100
AcDbArc
 50
50.8337703781
 51
90.0
  0
SPLINE
  5
209
330
1F
100
AcDbEntity
  8
0
  6
SLD-Сплошная
 62
     7
370
    25
100
AcDbSpline
210
0.0
220
0.0
230
1.0
 70
     8
 71
     3
 72
     8
 73
     4
 74
     0
 42
0.00000001
 43
0.00000001
 40
0.0
 40
0.0
 40
0.0
 40
0.0
 40
1.0
 40
1.0
 40
1.0
 40
1.0
 10
358.922898084263
 20
162.5786148860657
 30
0.0
 10
359.0272315785166
 20
162.2834157272092
 30
0.0
 10
359.1259571376598
 20
161.9684435364491
 30
0.0
 10
359.2186900384812
 20
161.6087087553153
 30
0.0
  0
ARC
  5
20A
330
1F
100
AcDbEntity
  8
0
  6
SLD-Сплошная
 62
     7
370
    25
100
AcDbCircle
 10
347.9859037683
 20
158.7131064678
 30
0.0
 40
11.60000000000003
100
AcDbArc
 50
199.4651527918
 51
340.5348472082
  0
ARC
  5
20B
330
1F
100
AcDbEntity
  8
0
  6
SLD-Сплошная
 62
     7
370
    25
100
AcDbCircle
 10
347.9859037683
 20
158.7131064678
 30
0.0
 40
11.60000000000004
100
AcDbArc
 50
19.4651527918
 51
160.5348472082
  0
ARC
  5
20C
330
1F
100
AcDbEntity
  8
0
  6
SLD-Сплошная
 62
     7
370
    25
100
AcDbCircle
 10
347.985903752
 20
134.7436312898
 30
0.0
 40
3.500000000000055
100
AcDbArc
 50
93.1576196409
 51
273.1576196409
  0
ARC
  5
20D
330
1F
100
AcDbEntity
  8
0
  6
SLD-Сплошная
 62
     7
370
    25
100
AcDbCircle
 10
347.985903752
 20
134.7436312898
 30
0.0
 40
3.500000000000055
100
AcDbArc
 50
273.1576196409
 51
93.1576196409
  0
ARC
  5
20E
330
1F
100
AcDbEntity
  8
0
  6
SLD-Сплошная
 62
     7
370
    25
100
AcDbCircle
 10
335.3844049111
 20
143.8991561143
 30
0.0
 40
2.500000000000087
100
AcDbArc
 50
73.1576196409
 51
253.1576196409
  0
ARC
  5
20F
330
1F
100
AcDbEntity
  8
0
  6
SLD-Сплошная
 62
     7
370
    25
100
AcDbCircle
 10
335.3844049111
 20
143.8991561143
 30
0.0
 40
2.500000000000087
100
AcDbArc
 50
253.1576196409
 51
73.1576196409
  0
ARC
  5
210
330
1F
100
AcDbEntity
  8
0
  6
SLD-Сплошная
 62
     7
370
    25
100
AcDbCircle
 10
360.5874025929
 20
143.8991561143
 30
0.0
 40
2.500000000000102
100
AcDbArc
 50
118.1576196409
 51
298.1576196409
  0
ARC
  5
211
330
1F
100
AcDbEntity
  8
0
  6
SLD-Сплошная
 62
     7
370
    25
100
AcDbCircle
 10
360.5874025929
 20
143.8991561143
 30
0.0
 40
2.500000000000102
100
AcDbArc
 50
298.1576196409
 51
118.1576196409
  0
ARC
  5
212
330
1F
100
AcDbEntity
  8
0
  6
SLD-Сплошная
 62
     7
370
    25
100
AcDbCircle
 10
335.3844049273
 20
143.8991561169
 30
0.0
 40
4.999999999420908
100
AcDbArc
 50
90.0
 51
270.0
  0
ARC
  5
213
330
1F
100
AcDbEntity
  8
0
  6
SLD-Сплошная
 62
     7
370
    25
100
AcDbCircle
 10
335.3844049273
 20
143.8991561169
 30
0.0
 40
4.5
100
AcDbArc
 50
90.0
 51
270.0
  0
ARC
  5
214
330
1F
100
AcDbEntity
  8
0
  6
SLD-Сплошная
 62
     7
370
    25
100
AcDbCircle
 10
335.3844049273
 20
143.8991561169
 30
0.0
 40
4.999999999420908
100
AcDbArc
 50
270.0
 51
90.0
  0
ARC
  5
215
330
1F
100
AcDbEntity
  8
0
  6
SLD-Сплошная
 62
     7
370
    25
100
AcDbCircle
 10
335.3844049273
 20
143.8991561169
 30
0.0
 40
4.5
100
AcDbArc
 50
270.0
 51
90.0
  0
ARC
  5
216
330
1F
100
AcDbEntity
  8
0
  6
SLD-Сплошная
 62
     7
370
    25
100
AcDbCircle
 10
360.5874026092
 20
143.8991561169
 30
0.0
 40
4.999999999420936
100
AcDbArc
 50
270.0
 51
90.0
  0
ARC
  5
217
330
1F
100
AcDbEntity
  8
0
  6
SLD-Сплошная
 62
     7
370
    25
100
AcDbCircle
 10
360.5874026092
 20
143.8991561169
 30
0.0
 40
4.5
100
AcDbArc
 50
270.0
 51
90.0
  0
ARC
  5
218
330
1F
100
AcDbEntity
  8
0
  6
SLD-Сплошная
 62
     7
370
    25
100
AcDbCircle
 10
360.5874026092
 20
143.8991561169
 30
0.0
 40
4.5
100
AcDbArc
 50
90.0
 51
270.0
  0
ARC
  5
219
330
1F
100
AcDbEntity
  8
0
  6
SLD-Сплошная
 62
     7
370
    25
100
AcDbCircle
 10
360.5874026092
 20
143.8991561169
 30
0.0
 40
4.999999999420936
100
AcDbArc
 50
90.0
 51
270.0
  0
LINE
  5
21A
330
1F
100
AcDbEntity
  8
0
  6
SLD-Сплошная
 62
     7
370
    25
100
AcDbLine
 10
332.6132474041
 20
137.7523142726
 30
0.0
 11
332.0591481096
 21
137.7523142726
 31
0.0
  0
LINE
  5
21B
330
1F
100
AcDbEntity
  8
0
  6
SLD-Сплошная
 62
     7
370
    25
100
AcDbLine
 10
334.7572496994
 20
134.3182200092
 30
0.0
 11
332.6132474041
 21
137.7523142726
 31
0.0
  0
LINE
  5
21C
330
1F
100
AcDbEntity
  8
0
  6
SLD-Сплошная
 62
     7
370
    25
100
AcDbLine
 10
334.7572496994
 20
137.7523142726
 30
0.0
 11
334.7572496994
 21
134.3182200092
 31
0.0
  0
LINE
  5
21D
330
1F
100
AcDbEntity
  8
0
  6
SLD-Сплошная
 62
     7
370
    25
100
AcDbLine
 10
335.2751515525
 20
137.7523142726
 30
0.0
 11
334.7572496994
 21
137.7523142726
 31
0.0
  0
LINE
  5
21E
330
1F
100
AcDbEntity
  8
0
  6
SLD-Сплошная
 62
     7
370
    25
100
AcDbLine
 10
335.2751515525
 20
133.3783940379
 30
0.0
 11
335.2751515525
 21
137.7523142726
 31
0.0
  0
LINE
  5
21F
330
1F
100
AcDbEntity
  8
0
  6
SLD-Сплошная
 62
     7
370
    25
100
AcDbLine
 10
334.721052258
 20
133.3783940379
 30
0.0
 11
335.2751515525
 21
133.3783940379
 31
0.0
  0
LINE
  5
220
330
1F
100
AcDbEntity
  8
0
  6
SLD-Сплошная
 62
     7
370
    25
100
AcDbLine
 10
332.5770499627
 20
136.8154718758
 30
0.0
 11
334.721052258
 21
133.3783940379
 31
0.0
  0
LINE
  5
221
330
1F
100
AcDbEntity
  8
0
  6
SLD-Сплошная
 62
     7
370
    25
100
AcDbLine
 10
332.5770499627
 20
133.3783940379
 30
0.0
 11
332.5770499627
 21
136.8154718758
 31
0.0
  0
LINE
  5
222
330
1F
100
AcDbEntity
  8
0
  6
SLD-Сплошная
 62
     7
370
    25
100
AcDbLine
 10
332.0591481096
 20
133.3783940379
 30
0.0
 11
332.5770499627
 21
133.3783940379
 31
0.0
  0
LINE
  5
223
330
1F
100
AcDbEntity
  8
0
  6
SLD-Сплошная
 62
     7
370
    25
100
AcDbLine
 10
332.0591481096
 20
137.7523142726
 30
0.0
 11
332.0591481096
 21
133.3783940379
 31
0.0
  0
LINE
  5
224
330
1F
100
AcDbEntity
  8
0
  6
SLD-Сплошная
 62
     7
370
    25
100
AcDbLine
 10
364.3387750188
 20
136.9386433968
 30
0.0
 11
364.3387750188
 21
133.8520149087
 31
0.0
  0
LINE
  5
225
330
1F
100
AcDbEntity
  8
0
  6
SLD-Сплошная
 62
     7
370
    25
100
AcDbLine
 10
364.7908298133
 20
133.8520149087
 30
0.0
 11
364.7908298133
 21
137.8132329859
 31
0.0
  0
LINE
  5
226
330
1F
100
AcDbEntity
  8
0
  6
SLD-Сплошная
 62
     7
370
    25
100
AcDbLine
 10
364.3387750188
 20
133.8520149087
 30
0.0
 11
364.7908298133
 21
133.8520149087
 31
0.0
  0
LINE
  5
227
330
1F
100
AcDbEntity
  8
0
  6
SLD-Сплошная
 62
     7
370
    25
100
AcDbLine
 10
364.7908298133
 20
137.8132329859
 30
0.0
 11
364.4995056124
 21
137.8132329859
 31
0.0
  0
LINE
  5
228
330
1F
100
AcDbEntity
  8
0
  6
SLD-Сплошная
 62
     7
370
    25
100
AcDbLine
 10
363.4346654298
 20
136.8229284666
 30
0.0
 11
363.4346654298
 21
136.3546866558
 31
0.0
  0
SPLINE
  5
229
330
1F
100
AcDbEntity
  8
0
  6
SLD-Сплошная
 62
     7
370
    25
100
AcDbSpline
210
0.0
220
0.0
230
1.0
 70
     8
 71
     3
 72
    10
 73
     6
 74
     0
 42
0.00000001
 43
0.00000001
 40
0.0
 40
0.0
 40
0.0
 40
0.0
 40
0.49999999999996
 40
0.49999999999996
 40
1.0
 40
1.0
 40
1.0
 40
1.0
 10
364.4995056124322
 20
137.8132329858791
 30
0.0
 10
364.4210238772723
 20
137.6430243966271
 30
0.0
 10
364.2866631466787
 20
137.4667609563736
 30
0.0
 10
363.9086951101489
 20
137.1048154187541
 30
0.0
 10
363.687690543939
 20
136.9500803376156
 30
0.0
 10
363.4346654297836
 20
136.8229284665931
 30
0.0
  0
SPLINE
  5
22A
330
1F
100
AcDbEntity
  8
0
  6
SLD-Сплошная
 62
     7
370
    25
100
AcDbSpline
210
0.0
220
0.0
230
1.0
 70
     8
 71
     3
 72
    10
 73
     6
 74
     0
 42
0.00000001
 43
0.00000001
 40
0.0
 40
0.0
 40
0.0
 40
0.0
 40
0.500000000000045
 40
0.500000000000045
 40
1.0
 40
1.0
 40
1.0
 40
1.0
 10
363.4346654297836
 20
136.3546866558436
 30
0.0
 10
363.5753046991901
 20
136.4105258372976
 30
0.0
 10
363.7341517311536
 20
136.4939482288681
 30
0.0
 10
364.0870056124321
 20
136.7159594322406
 30
0.0
 10
364.2301562973636
 20
136.8276377951491
 30
0.0
 10
364.3387750188248
 20
136.9386433968356
 30
0.0
  0
ARC
  5
22B
330
1F
100
AcDbEntity
  8
0
  6
SLD-Сплошная
 62
     7
370
    25
100
AcDbCircle
 10
347.9859037682
 20
128.3395481809
 30
0.0
 40
2.250000000000057
100
AcDbArc
 50
180.0
 51
0.0
  0
ARC
  5
22C
330
1F
100
AcDbEntity
  8
0
  6
SLD-Сплошная
 62
     7
370
    25
100
AcDbCircle
 10
347.9859037682
 20
128.3395481809
 30
0.0
 40
1.949999999999989
100
AcDbArc
 50
0.0
 51
180.0
  0
ARC
  5
22D
330
1F
100
AcDbEntity
  8
0
  6
SLD-Сплошная
 62
     7
370
    25
100
AcDbCircle
 10
347.9859037682
 20
128.3395481809
 30
0.0
 40
1.949999999999989
100
AcDbArc
 50
180.0
 51
0.0
  0
ARC
  5
22E
330
1F
100
AcDbEntity
  8
0
  6
SLD-Сплошная
 62
     7
370
    25
100
AcDbCircle
 10
347.9859037682
 20
128.3395481809
 30
0.0
 40
2.250000000000057
100
AcDbArc
 50
0.0
 51
180.0
  0
LINE
  5
22F
330
1F
100
AcDbEntity
  8
0
  6
SLD-Сплошная
 62
     7
370
    25
100
AcDbLine
 10
347.3517743077
 20
126.7356627641
 30
0.0
 11
348.6552249044
 21
126.7356627641
 31
0.0
  0
LINE
  5
230
330
1F
100
AcDbEntity
  8
0
  6
SLD-Сплошная
 62
     7
370
    25
100
AcDbLine
 10
347.3517743077
 20
126.7356627641
 30
0.0
 11
347.3517743077
 21
127.0206627641
 31
0.0
  0
LINE
  5
231
330
1F
100
AcDbEntity
  8
0
  6
SLD-Сплошная
 62
     7
370
    25
100
AcDbLine
 10
347.3517743077
 20
127.0206627641
 30
0.0
 11
348.6552249044
 21
127.0206627641
 31
0.0
  0
LINE
  5
232
330
1F
100
AcDbEntity
  8
0
  6
SLD-Сплошная
 62
     7
370
    25
100
AcDbLine
 10
348.6552249044
 20
126.7356627641
 30
0.0
 11
348.6552249044
 21
127.0206627641
 31
0.0
  0
LINE
  5
233
330
1F
100
AcDbEntity
  8
0
  6
SLD-Сплошная
 62
     7
370
    25
100
AcDbLine
 10
346.9714252688
 20
127.7331627641
 30
0.0
 11
349.0176402467
 21
127.7331627641
 31
0.0
  0
LINE
  5
234
330
1F
100
AcDbEntity
  8
0
  6
SLD-Сплошная
 62
     7
370
    25
100
AcDbLine
 10
349.0176402467
 20
127.4481627641
 30
0.0
 11
349.0176402467
 21
127.7331627641
 31
0.0
  0
LINE
  5
235
330
1F
100
AcDbEntity
  8
0
  6
SLD-Сплошная
 62
     7
370
    25
100
AcDbLine
 10
346.9714252688
 20
127.4481627641
 30
0.0
 11
346.9714252688
 21
127.7331627641
 31
0.0
  0
LINE
  5
236
330
1F
100
AcDbEntity
  8
0
  6
SLD-Сплошная
 62
     7
370
    25
100
AcDbLine
 10
346.9714252688
 20
127.4481627641
 30
0.0
 11
349.0176402467
 21
127.4481627641
 31
0.0
  0
LINE
  5
237
330
1F
100
AcDbEntity
  8
0
  6
SLD-Сплошная
 62
     7
370
    25
100
AcDbLine
 10
348.1284037872
 20
128.4494027082
 30
0.0
 11
349.3800555889
 21
128.4456627641
 31
0.0
  0
LINE
  5
238
330
1F
100
AcDbEntity
  8
0
  6
SLD-Сплошная
 62
     7
370
    25
100
AcDbLine
 10
349.3800555889
 20
128.1606627641
 30
0.0
 11
349.3800555889
 21
128.4456627641
 31
0.0
  0
LINE
  5
239
330
1F
100
AcDbEntity
  8
0
  6
SLD-Сплошная
 62
     7
370
    25
100
AcDbLine
 10
346.5909003732
 20
128.1606627641
 30
0.0
 11
349.3800555889
 21
128.1606627641
 31
0.0
  0
LINE
  5
23A
330
1F
100
AcDbEntity
  8
0
  6
SLD-Сплошная
 62
     7
370
    25
100
AcDbLine
 10
346.5909003732
 20
128.4539967788
 30
0.0
 11
347.8391458966
 21
128.4502670127
 31
0.0
  0
LINE
  5
23B
330
1F
100
AcDbEntity
  8
0
  6
SLD-Сплошная
 62
     7
370
    25
100
AcDbLine
 10
347.8391458966
 20
128.4502670127
 30
0.0
 11
347.8434037872
 21
129.8752606514
 31
0.0
  0
LINE
  5
23C
330
1F
100
AcDbEntity
  8
0
  6
SLD-Сплошная
 62
     7
370
    25
100
AcDbLine
 10
347.8434037872
 20
129.8752606514
 30
0.0
 11
348.1284037872
 21
129.8752606514
 31
0.0
  0
LINE
  5
23D
330
1F
100
AcDbEntity
  8
0
  6
SLD-Сплошная
 62
     7
370
    25
100
AcDbLine
 10
348.1284037872
 20
128.4494027082
 30
0.0
 11
348.1284037872
 21
129.8752606514
 31
0.0
  0
LINE
  5
23E
330
1F
100
AcDbEntity
  8
0
  6
SLD-Сплошная
 62
     7
370
    25
100
AcDbLine
 10
346.5909003732
 20
128.1606627641
 30
0.0
 11
346.5909003732
 21
128.4539967788
 31
0.0
  0
LINE
  5
23F
330
1F
100
AcDbEntity
  8
0
  6
SLD-Сплошная
 62
     7
370
    25
100
AcDbLine
 10
360.8780444252
 20
137.7970867165
 30
0.0
 11
360.3908298133
 21
137.7970867165
 31
0.0
  0
LINE
  5
240
330
1F
100
AcDbEntity
  8
0
  6
SLD-Сплошная
 62
     7
370
    25
100
AcDbLine
 10
360.8780444252
 20
134.3175656746
 30
0.0
 11
360.8780444252
 21
137.7970867165
 31
0.0
  0
LINE
  5
241
330
1F
100
AcDbEntity
  8
0
  6
SLD-Сплошная
 62
     7
370
    25
100
AcDbLine
 10
362.6912864343
 20
134.3175656746
 30
0.0
 11
360.8780444252
 21
134.3175656746
 31
0.0
  0
LINE
  5
242
330
1F
100
AcDbEntity
  8
0
  6
SLD-Сплошная
 62
     7
370
    25
100
AcDbLine
 10
362.6912864343
 20
133.8520149087
 30
0.0
 11
362.6912864343
 21
134.3175656746
 31
0.0
  0
LINE
  5
243
330
1F
100
AcDbEntity
  8
0
  6
SLD-Сплошная
 62
     7
370
    25
100
AcDbLine
 10
360.3908298133
 20
137.7970867165
 30
0.0
 11
360.3908298133
 21
133.8520149087
 31
0.0
  0
LINE
  5
244
330
1F
100
AcDbEntity
  8
0
  6
SLD-Сплошная
 62
     7
370
    25
100
AcDbLine
 10
360.3908298133
 20
133.8520149087
 30
0.0
 11
362.6912864343
 21
133.8520149087
 31
0.0
  0
ARC
  5
245
330
1F
100
AcDbEntity
  8
0
  6
SLD-Сплошная
 62
     7
370
    25
100
AcDbCircle
 10
347.9859037683
 20
147.9936312923
 30
0.0
 40
24.65000000000001
100
AcDbArc
 50
270.0
 51
90.0
  0
ARC
  5
246
330
1F
100
AcDbEntity
  8
0
  6
SLD-Сплошная
 62
     7
370
    25
100
AcDbCircle
 10
347.9859037683
 20
147.9936312923
 30
0.0
 40
24.65000000000001
100
AcDbArc
 50
90.0
 51
270.0
  0
ARC
  5
247
330
1F
100
AcDbEntity
  8
0
  6
SLD-Сплошная
 62
     7
370
    25
100
AcDbCircle
 10
347.985903752
 20
147.9936312898
 30
0.0
 40
43.50000000000001
100
AcDbArc
 50
326.8423803591
 51
146.8423803591
  0
ARC
  5
248
330
1F
100
AcDbEntity
  8
0
  6
SLD-Сплошная
 62
     7
370
    25
100
AcDbCircle
 10
347.985903752
 20
147.9936312898
 30
0.0
 40
34.35000000000004
100
AcDbArc
 50
311.9041920743
 51
326.8423803591
  0
ARC
  5
249
330
1F
100
AcDbEntity
  8
0
  6
SLD-Сплошная
 62
     7
370
    25
100
AcDbCircle
 10
347.985903752
 20
147.9936312898
 30
0.0
 40
34.35000000000011
100
AcDbArc
 50
326.8423803591
 51
341.7805686439
  0
LINE
  5
24A
330
1F
100
AcDbEntity
  8
0
  6
SLD-Сплошная
 62
     7
370
    25
100
AcDbLine
 10
384.8342910583
 20
135.8646487441
 30
0.0
 11
380.6138033002
 21
137.2538607584
 31
0.0
  0
ARC
  5
24B
330
1F
100
AcDbEntity
  8
0
  6
SLD-Сплошная
 62
     7
370
    25
100
AcDbCircle
 10
347.985903752
 20
147.9936312898
 30
0.0
 40
38.79324509079412
100
AcDbArc
 50
341.7805686439
 51
131.9041920743
  0
LINE
  5
24C
330
1F
100
AcDbEntity
  8
0
  6
SLD-Сплошная
 62
     7
370
    25
100
AcDbLine
 10
325.0439849032
 20
173.5590544143
 30
0.0
 11
322.0763992177
 21
176.8659959221
 31
0.0
  0
ARC
  5
24D
330
1F
100
AcDbEntity
  8
0
  6
SLD-Сплошная
 62
     7
370
    25
100
AcDbCircle
 10
347.985903752
 20
147.9936312898
 30
0.0
 40
34.34999999999999
100
AcDbArc
 50
131.9041920743
 51
161.7805686439
  0
LINE
  5
24E
330
1F
100
AcDbEntity
  8
0
  6
SLD-Сплошная
 62
     7
370
    25
100
AcDbLine
 10
311.1375164456
 20
160.1226138355
 30
0.0
 11
315.3580042037
 21
158.7334018212
 31
0.0
  0
ARC
  5
24F
330
1F
100
AcDbEntity
  8
0
  6
SLD-Сплошная
 62
     7
370
    25
100
AcDbCircle
 10
347.985903752
 20
147.9936312898
 30
0.0
 40
38.79324509079407
100
AcDbArc
 50
161.7805686439
 51
311.9041920743
  0
LINE
  5
250
330
1F
100
AcDbEntity
  8
0
  6
SLD-Сплошная
 62
     7
370
    25
100
AcDbLine
 10
370.9278226007
 20
122.4282081653
 30
0.0
 11
373.8954082863
 21
119.1212666575
 31
0.0
  0
ARC
  5
251
330
1F
100
AcDbEntity
  8
0
  6
SLD-Сплошная
 62
     7
370
    25
100
AcDbCircle
 10
347.985903752
 20
147.9936312898
 30
0.0
 40
43.50000000000001
100
AcDbArc
 50
146.8423803591
 51
326.8423803591
  0
ARC
  5
252
330
1F
100
AcDbEntity
  8
0
  6
SLD-Сплошная
 62
     7
370
    25
100
AcDbCircle
 10
347.985903752
 20
147.9936312898
 30
0.0
 40
38.49650898735345
100
AcDbArc
 50
341.7805686439
 51
131.9041920743
  0
ARC
  5
253
330
1F
100
AcDbEntity
  8
0
  6
SLD-Сплошная
 62
     7
370
    25
100
AcDbCircle
 10
347.985903752
 20
147.9936312898
 30
0.0
 40
38.49650898735346
100
AcDbArc
 50
161.7805686439
 51
311.9041920743
  0
ARC
  5
254
330
1F
100
AcDbEntity
  8
0
  6
SLD-Сплошная
 62
     7
370
    25
100
AcDbCircle
 10
310.3422799965
 20
173.5248218808
 30
0.0
 40
0.5000000000000235
100
AcDbArc
 50
64.9133781686
 51
115.2878558955
  0
LINE
  5
255
330
1F
100
AcDbEntity
  8
0
  6
SLD-Сплошная
 62
     7
370
    25
100
AcDbLine
 10
312.454090727
 20
173.0882574706
 30
0.0
 11
310.5542739801
 21
173.9776557918
 31
0.0
  0
LINE
  5
256
330
1F
100
AcDbEntity
  8
0
  6
SLD-Сплошная
 62
     7
370
    25
100
AcDbLine
 10
309.1540702009
 20
171.8339925598
 30
0.0
 11
310.7315339922
 21
170.4516350702
 31
0.0
  0
ARC
  5
257
330
1F
100
AcDbEntity
  8
0
  6
SLD-Сплошная
 62
     7
370
    25
100
AcDbCircle
 10
309.4836027938
 20
172.21003547
 30
0.0
 40
0.4999999999999931
100
AcDbArc
 50
178.4156364865
 51
228.7713825496
  0
ARC
  5
258
330
1F
100
AcDbEntity
  8
0
  6
SLD-Сплошная
 62
     7
370
    25
100
AcDbCircle
 10
310.9830293405
 20
172.1685622161
 30
0.0
 40
2.0000000000001
100
AcDbArc
 50
146.8423803591
 51
178.4156364865
  0
ARC
  5
259
330
1F
100
AcDbEntity
  8
0
  6
SLD-Сплошная
 62
     7
370
    25
100
AcDbCircle
 10
310.9830293405
 20
172.1685622161
 30
0.0
 40
2.000000000000175
100
AcDbArc
 50
115.2878558955
 51
146.8423803591
  0
LINE
  5
25A
330
1F
100
AcDbEntity
  8
0
  6
SLD-Сплошная
 62
     7
370
    25
100
AcDbLine
 10
383.5174954446
 20
122.8986917245
 30
0.0
 11
385.4170900887
 21
122.0093973806
 31
0.0
  0
ARC
  5
25B
330
1F
100
AcDbEntity
  8
0
  6
SLD-Сплошная
 62
     7
370
    25
100
AcDbCircle
 10
385.6290840723
 20
122.4622312916
 30
0.0
 40
0.500000000000001
100
AcDbArc
 50
244.9133781686
 51
295.2691242317
  0
ARC
  5
25C
330
1F
100
AcDbEntity
  8
0
  6
SLD-Сплошная
 62
     7
370
    25
100
AcDbCircle
 10
386.4881910713
 20
123.7767369055
 30
0.0
 40
0.5000000000000948
100
AcDbArc
 50
358.3969048227
 51
48.7713825496
  0
LINE
  5
25D
330
1F
100
AcDbEntity
  8
0
  6
SLD-Сплошная
 62
     7
370
    25
100
AcDbLine
 10
386.8177236641
 20
124.1527798157
 30
0.0
 11
385.2400754339
 21
125.5352989321
 31
0.0
  0
ARC
  5
25E
330
1F
100
AcDbEntity
  8
0
  6
SLD-Сплошная
 62
     7
370
    25
100
AcDbCircle
 10
384.9887781634
 20
123.8187003635
 30
0.0
 40
1.999999999999942
100
AcDbArc
 50
295.2691242317
 51
326.8423803591
  0
ARC
  5
25F
330
1F
100
AcDbEntity
  8
0
  6
SLD-Сплошная
 62
     7
370
    25
100
AcDbCircle
 10
384.9887781634
 20
123.8187003635
 30
0.0
 40
1.999999999999967
100
AcDbArc
 50
326.8423803591
 51
358.3969048227
  0
LINE
  5
260
330
1F
100
AcDbEntity
  8
0
  6
SLD-Сплошная
 62
     7
370
    25
100
AcDbLine
 10
268.6435464804
 20
274.1708262519
 30
0.0
 11
258.6435464804
 21
274.1708262519
 31
0.0
  0
LINE
  5
261
330
1F
100
AcDbEntity
  8
0
  6
SLD-Сплошная
 62
     7
370
    25
100
AcDbLine
 10
258.6435464804
 20
228.8708262519
 30
0.0
 11
268.6435464804
 21
228.8708262519
 31
0.0
  0
LINE
  5
262
330
1F
100
AcDbEntity
  8
0
  6
SLD-Сплошная
 62
     7
370
    25
100
AcDbLine
 10
268.6435464804
 20
232.0708262519
 30
0.0
 11
281.6435464804
 21
232.0708262519
 31
0.0
  0
LINE
  5
263
330
1F
100
AcDbEntity
  8
0
  6
SLD-Сплошная
 62
     7
370
    25
100
AcDbLine
 10
281.6435464804
 20
270.9708262519
 30
0.0
 11
268.6435464804
 21
270.9708262519
 31
0.0
  0
LINE
  5
264
330
1F
100
AcDbEntity
  8
0
  6
SLD-Сплошная
 62
     7
370
    25
100
AcDbLine
 10
134.5261664153
 20
248.0208262366
 30
0.0
 11
135.4261664158
 21
248.0208262366
 31
0.0
  0
LINE
  5
265
330
1F
100
AcDbEntity
  8
0
  6
SLD-Сплошная
 62
     7
370
    25
100
AcDbLine
 10
135.4261664158
 20
255.0208262366
 30
0.0
 11
134.5261664153
 21
255.0208262366
 31
0.0
  0
LINE
  5
266
330
1F
100
AcDbEntity
  8
0
  6
SLD-Сплошная
 62
     7
370
    25
100
AcDbLine
 10
159.6261664153
 20
208.0208262366
 30
0.0
 11
165.6261664153
 21
208.0208262366
 31
0.0
  0
SPLINE
  5
267
330
1F
100
AcDbEntity
  8
0
  6
SLD-Сплошная
 62
     7
370
    25
100
AcDbSpline
210
0.0
220
0.0
230
1.0
 70
     8
 71
     3
 72
    16
 73
    12
 74
     0
 42
0.00000001
 43
0.00000001
 40
0.0
 40
0.0
 40
0.0
 40
0.0
 40
0.121342230773527
 40
0.2443650988102187
 40
0.3380241697850835
 40
0.4291973347952586
 40
0.5639116356725122
 40
0.6522618496724044
 40
0.7548707602694866
 40
0.8711446689352265
 40
1.0
 40
1.0
 40
1.0
 40
1.0
 10
182.1869610168874
 20
288.3097662846067
 30
0.0
 10
182.2004718085105
 20
288.4330303900124
 30
0.0
 10
182.2276805214947
 20
288.6812658568011
 30
0.0
 10
182.2493982196264
 20
289.0134319511646
 30
0.0
 10
182.2648072528835
 20
289.249141834927
 30
0.0
 10
182.2464663466806
 20
289.5447270219548
 30
0.0
 10
182.1543952940555
 20
289.8460465398832
 30
0.0
 10
181.9921278098692
 20
290.1143428508981
 30
0.0
 10
181.7879933240131
 20
290.3215378536797
 30
0.0
 10
181.5045827380669
 20
290.4876747073444
 30
0.0
 10
181.2755046978673
 20
290.511198184034
 30
0.0
 10
181.155086885851
 20
290.5235636014766
 30
0.0
  0
LINE
  5
268
330
1F
100
AcDbEntity
  8
0
  6
SLD-Сплошная
 62
     7
370
    25
100
AcDbLine
 10
180.7120414907
 20
279.0105769136
 30
0.0
 11
182.13573369
 21
287.8087040245
 31
0.0
  0
LINE
  5
269
330
1F
100
AcDbEntity
  8
0
  6
SLD-Сплошная
 62
     7
370
    25
100
AcDbLine
 10
181.1568656792
 20
290.5231135558
 30
0.0
 11
163.6261664153
 21
290.5231135558
 31
0.0
  0
LINE
  5
26A
330
1F
100
AcDbEntity
  8
0
  6
SLD-Сплошная
 62
     7
370
    25
100
AcDbLine
 10
165.6261664153
 20
295.0208262366
 30
0.0
 11
159.6261664153
 21
295.0208262366
 31
0.0
  0
LINE
  5
26B
330
1F
100
AcDbEntity
  8
0
  6
SLD-Сплошная
 62
     7
370
    25
100
AcDbLine
 10
166.6261664182
 20
293.1708262366
 30
0.0
 11
165.6261664153
 21
295.0208262366
 31
0.0
  0
LINE
  5
26C
330
1F
100
AcDbEntity
  8
0
  6
SLD-Сплошная
 62
     7
370
    25
100
AcDbLine
 10
179.6261664153
 20
293.1708262366
 30
0.0
 11
166.6261664182
 21
293.1708262366
 31
0.0
  0
SPLINE
  5
26D
330
1F
100
AcDbEntity
  8
0
  6
SLD-Сплошная
 62
     7
370
    25
100
AcDbSpline
210
0.0
220
0.0
230
1.0
 70
     8
 71
     3
 72
     9
 73
     5
 74
     0
 42
0.00000001
 43
0.00000001
 40
0.0
 40
0.0
 40
0.0
 40
0.0
 40
0.4810463940059441
 40
1.0
 40
1.0
 40
1.0
 40
1.0
 10
180.2320072334028
 20
276.010702613117
 30
0.0
 10
180.3051797854345
 20
276.4852051956999
 30
0.0
 10
180.4572910016155
 20
277.4716019102277
 30
0.0
 10
180.6089520838001
 20
278.428039728584
 30
0.0
 10
180.6876571492888
 20
278.9243865833291
 30
0.0
  0
SPLINE
  5
26E
330
1F
100
AcDbEntity
  8
0
  6
SLD-Сплошная
 62
     7
370
    25
100
AcDbSpline
210
0.0
220
0.0
230
1.0
 70
     8
 71
     3
 72
    14
 73
    10
 74
     0
 42
0.00000001
 43
0.00000001
 40
0.0
 40
0.0
 40
0.0
 40
0.0
 40
0.2727375773419022
 40
0.4026578116889589
 40
0.5282308291177815
 40
0.6500342595872989
 40
0.7685886850178146
 40
0.8848326151843303
 40
1.0
 40
1.0
 40
1.0
 40
1.0
 10
179.6261664153081
 20
275.2063917091808
 30
0.0
 10
179.6953750809602
 20
275.2487381107503
 30
0.0
 10
179.7975517231852
 20
275.3112564830077
 30
0.0
 10
179.9249704153459
 20
275.4500179702836
 30
0.0
 10
180.0113262987063
 20
275.5623142207585
 30
0.0
 10
180.0877995606714
 20
275.6819722656177
 30
0.0
 10
180.15185182785
 20
275.8019577874834
 30
0.0
 10
180.2032114676262
 20
275.9175142078387
 30
0.0
 10
180.2233842424354
 20
275.9831286751319
 30
0.0
 10
180.2334237070978
 20
276.0157832867044
 30
0.0
  0
LINE
  5
26F
330
1F
100
AcDbEntity
  8
0
  6
SLD-Сплошная
 62
     7
370
    25
100
AcDbLine
 10
165.6261664153
 20
208.0208262366
 30
0.0
 11
165.6317907026
 21
208.0312311681
 31
0.0
  0
LINE
  5
270
330
1F
100
AcDbEntity
  8
0
  6
SLD-Сплошная
 62
     7
370
    25
100
AcDbLine
 10
182.133708453
 20
215.245464
 30
0.0
 11
180.7120414907
 21
224.0310755596
 31
0.0
  0
SPLINE
  5
271
330
1F
100
AcDbEntity
  8
0
  6
SLD-Сплошная
 62
     7
370
    25
100
AcDbSpline
210
0.0
220
0.0
230
1.0
 70
     8
 71
     3
 72
    14
 73
    10
 74
     0
 42
0.00000001
 43
0.00000001
 40
0.0
 40
0.0
 40
0.0
 40
0.0
 40
0.0875232749797408
 40
0.239828033242983
 40
0.3716265021851523
 40
0.5788372248365278
 40
0.7514494421473669
 40
0.9791971484461064
 40
0.9999999999999999
 40
0.9999999999999999
 40
0.9999999999999999
 40
0.9999999999999999
 10
181.5925403063644
 20
212.6186130211512
 30
0.0
 10
181.6360513423492
 20
212.6358522210643
 30
0.0
 10
181.7552786700175
 20
212.6830904375365
 30
0.0
 10
181.9076492159475
 20
212.8098760709309
 30
0.0
 10
182.0738668344543
 20
212.9995320355474
 30
0.0
 10
182.1914445498788
 20
213.2374720880316
 30
0.0
 10
182.2328229421071
 20
213.4677573877762
 30
0.0
 10
182.2471987701734
 20
213.6259687832596
 30
0.0
 10
182.2438042415084
 20
213.7469370979653
 30
0.0
 10
182.2435201307966
 20
213.757061741882
 30
0.0
  0
LINE
  5
272
330
1F
100
AcDbEntity
  8
0
  6
SLD-Сплошная
 62
     7
370
    25
100
AcDbLine
 10
179.6261664153
 20
212.5185252783
 30
0.0
 11
181.1568456855
 21
212.5185252783
 31
0.0
  0
LINE
  5
273
330
1F
100
AcDbEntity
  8
0
  6
SLD-Сплошная
 62
     7
370
    25
100
AcDbLine
 10
135.4261664154
 20
254.5208262519
 30
0.0
 11
143.9261664154
 21
254.5208262519
 31
0.0
  0
LINE
  5
274
330
1F
100
AcDbEntity
  8
0
  6
SLD-Сплошная
 62
     7
370
    25
100
AcDbLine
 10
143.9261664157
 20
248.5208262519
 30
0.0
 11
135.4261664154
 21
248.5208262519
 31
0.0
  0
LINE
  5
275
330
1F
100
AcDbEntity
  8
0
  6
SLD-Сплошная
 62
     7
370
    25
100
AcDbLine
 10
143.9261664154
 20
254.5208262519
 30
0.0
 11
143.9261664157
 21
248.5208262519
 31
0.0
  0
LINE
  5
276
330
1F
100
AcDbEntity
  8
0
  6
SLD-Сплошная
 62
     7
370
    25
100
AcDbLine
 10
135.4261664154
 20
248.5208262519
 30
0.0
 11
135.4261664154
 21
254.5208262519
 31
0.0
  0
LINE
  5
277
330
1F
100
AcDbEntity
  8
0
  6
SLD-Сплошная
 62
     7
370
    25
100
AcDbLine
 10
135.4261664158
 20
279.5708262519
 30
0.0
 11
159.6261664156
 21
279.5708262519
 31
0.0
  0
LINE
  5
278
330
1F
100
AcDbEntity
  8
0
  6
SLD-Сплошная
 62
     7
370
    25
100
AcDbLine
 10
135.4261664158
 20
223.4708262519
 30
0.0
 11
159.6261664156
 21
223.4708262519
 31
0.0
  0
SPLINE
  5
279
330
1F
100
AcDbEntity
  8
0
  6
SLD-Сплошная
 62
     7
370
    25
100
AcDbSpline
210
0.0
220
0.0
230
1.0
 70
    24
 71
     3
 72
    15
 73
    11
 74
     0
 42
0.00000001
 43
0.00000001
 40
0.0
 40
0.0
 40
0.0
 40
0.0
 40
0.1376949469472072
 40
0.2503202128898462
 40
0.3751532373476412
 40
0.4999999898048808
 40
0.6247431050265259
 40
0.749679766733319
 40
0.8622551116905834
 40
1.0
 40
1.0
 40
1.0
 40
1.0
 10
143.9261664153709
 20
248.520826251973
 30
0.0
 10
143.926166415371
 20
248.7955029139244
 30
0.0
 10
143.926166415371
 20
249.2948467316892
 30
0.0
 10
143.9261664153709
 20
250.0448441488481
 30
0.0
 10
143.9261664153709
 20
250.7703563504845
 30
0.0
 10
143.926166415371
 20
251.5206185885593
 30
0.0
 10
143.9261664153709
 20
252.2710884742674
 30
0.0
 10
143.926166415371
 20
252.9965010274724
 30
0.0
 10
143.9261664153709
 20
253.7467067452149
 30
0.0
 10
143.9261664153709
 20
254.2460501922785
 30
0.0
 10
143.926166415371
 20
254.520826251913
 30
0.0
  0
LINE
  5
27A
330
1F
100
AcDbEntity
  8
0
  6
SLD-Сплошная
 62
     7
370
    25
100
AcDbLine
 10
135.4261664158
 20
223.4708262519
 30
0.0
 11
135.4261664158
 21
248.5208262519
 31
0.0
  0
LINE
  5
27B
330
1F
100
AcDbEntity
  8
0
  6
SLD-Сплошная
 62
     7
370
    25
100
AcDbLine
 10
135.4261664154
 20
254.5208262519
 30
0.0
 11
135.4261664158
 21
279.5708262519
 31
0.0
  0
ARC
  5
27C
330
1F
100
AcDbEntity
  8
0
  6
SLD-Сплошная
 62
     7
370
    25
100
AcDbCircle
 10
201.5850590214
 20
228.5208262693
 30
0.0
 40
49.99999998284433
100
AcDbArc
 50
79.6210855902
 51
89.9999999999
  0
ARC
  5
27D
330
1F
100
AcDbEntity
  8
0
  6
SLD-Сплошная
 62
     7
370
    25
100
AcDbCircle
 10
201.5850590214
 20
274.5208262345
 30
0.0
 40
49.99999998284429
100
AcDbArc
 50
270.0000000001
 51
280.3789144067
  0
LINE
  5
27E
330
1F
100
AcDbEntity
  8
0
  6
SLD-Сплошная
 62
     7
370
    25
100
AcDbLine
 10
180.6294517403
 20
278.5208262519
 30
0.0
 11
201.5850590214
 21
278.5208262522
 31
0.0
  0
LINE
  5
27F
330
1F
100
AcDbEntity
  8
0
  6
SLD-Сплошная
 62
     7
370
    25
100
AcDbLine
 10
179.6261664153
 20
224.5208262519
 30
0.0
 11
201.5850590214
 21
224.5208262517
 31
0.0
  0
LINE
  5
280
330
1F
100
AcDbEntity
  8
0
  6
SLD-Сплошная
 62
     7
370
    25
100
AcDbLine
 10
243.5262196862
 20
231.370535408
 30
0.0
 11
210.5929705827
 21
225.3386435335
 31
0.0
  0
LINE
  5
281
330
1F
100
AcDbEntity
  8
0
  6
SLD-Сплошная
 62
     7
370
    25
100
AcDbLine
 10
243.5262196859
 20
271.6711170937
 30
0.0
 11
210.5929705852
 21
277.7030089677
 31
0.0
  0
LINE
  5
282
330
1F
100
AcDbEntity
  8
0
  6
SLD-Сплошная
 62
     7
370
    25
100
AcDbLine
 10
243.5261664155
 20
256.020893373
 30
0.0
 11
243.5261664155
 21
271.6711268505
 31
0.0
  0
LINE
  5
283
330
1F
100
AcDbEntity
  8
0
  6
SLD-Сплошная
 62
     7
370
    25
100
AcDbLine
 10
249.4268226949
 20
229.8699766096
 30
0.0
 11
246.4027486074
 21
227.5341207748
 31
0.0
  0
LINE
  5
284
330
1F
100
AcDbEntity
  8
0
  6
SLD-Сплошная
 62
     7
370
    25
100
AcDbLine
 10
249.4268226954
 20
273.1716758975
 30
0.0
 11
246.4027486094
 21
275.507531731
 31
0.0
  0
SPLINE
  5
285
330
1F
100
AcDbEntity
  8
0
  6
SLD-Сплошная
 62
     7
370
    25
100
AcDbSpline
210
0.0
220
0.0
230
1.0
 70
    24
 71
     3
 72
    49
 73
    45
 74
     0
 42
0.00000001
 43
0.00000001
 40
0.0
 40
0.0
 40
0.0
 40
0.0
 40
0.0069603753788707
 40
0.0139096275664433
 40
0.020851057299121
 40
0.0277879764795966
 40
0.0347237034721132
 40
0.0416615583515786
 40
0.0486048581404288
 40
0.0555569120673414
 40
0.0625210168815352
 40
0.0937601486923622
 40
0.1250182043941466
 40
0.1562573362053551
 40
0.1875153919067776
 40
0.2187545237181349
 40
0.250012579419387
 40
0.2812517112300945
 40
0.3125097669320103
 40
0.3437488987437294
 40
0.3750069544446354
 40
0.4062460862563921
 40
0.4375041419572495
 40
0.4687432737685692
 40
0.5000013294698702
 40
0.5312404612811138
 40
0.5624985169824872
 40
0.5937376487935582
 40
0.6249957044951073
 40
0.6562348363058765
 40
0.6874928920077233
 40
0.7187320238185343
 40
0.7499900795203469
 40
0.7812292113310263
 40
0.8124872670329618
 40
0.8437263988438936
 40
0.8749844545455884
 40
0.9062235867180849
 40
0.9374816420616934
 40
0.9500016466579188
 40
0.9624941317365237
 40
0.9749784403230538
 40
0.9874739534146858
 40
0.9999999999999999
 40
0.9999999999999999
 40
0.9999999999999999
 40
0.9999999999999999
 10
249.4261664153711
 20
273.1708262571895
 30
0.0
 10
249.4261664153711
 20
273.1698397316341
 30
0.0
 10
249.4261664153711
 20
273.1678682570637
 30
0.0
 10
249.4261664153711
 20
273.1518849050155
 30
0.0
 10
249.4261664153711
 20
273.126359395121
 30
0.0
 10
249.4261664153711
 20
273.0903609042617
 30
0.0
 10
249.4261664153711
 20
273.0441386160484
 30
0.0
 10
249.4261664153711
 20
272.9876253529025
 30
0.0
 10
249.4261664153711
 20
272.9208410355575
 30
0.0
 10
249.4261664153711
 20
272.8437735175121
 30
0.0
 10
249.4261664153711
 20
272.6550722049476
 30
0.0
 10
249.4261664153711
 20
272.2724076443698
 30
0.0
 10
249.4261664153711
 20
271.5549151984678
 30
0.0
 10
249.4261664153711
 20
270.6456613342114
 30
0.0
 10
249.4261664153711
 20
269.5511141920434
 30
0.0
 10
249.4261664153711
 20
268.2839339477098
 30
0.0
 10
249.4261664153711
 20
266.8544258639952
 30
0.0
 10
249.4261664153711
 20
265.2780079823717
 30
0.0
 10
249.4261664153711
 20
263.5684763711164
 30
0.0
 10
249.4261664153711
 20
261.7434011125817
 30
0.0
 10
249.426166415371
 20
259.8195424743082
 30
0.0
 10
249.426166415371
 20
257.815946414857
 30
0.0
 10
249.426166415371
 20
255.7516935695803
 30
0.0
 10
249.426166415371
 20
253.6465737790686
 30
0.0
 10
249.426166415371
 20
251.5212548067899
 30
0.0
 10
249.426166415371
 20
249.3955098579674
 30
0.0
 10
249.426166415371
 20
247.2907995749559
 30
0.0
 10
249.426166415371
 20
245.2261206540715
 30
0.0
 10
249.426166415371
 20
243.22290189614
 30
0.0
 10
249.426166415371
 20
241.2986334563529
 30
0.0
 10
249.426166415371
 20
239.4738887964934
 30
0.0
 10
249.426166415371
 20
237.7639793964539
 30
0.0
 10
249.426166415371
 20
236.1878327424175
 30
0.0
 10
249.4261664153709
 20
234.7579932646046
 30
0.0
 10
249.4261664153709
 20
233.4910149619602
 30
0.0
 10
249.4261664153709
 20
232.3961936580454
 30
0.0
 10
249.4261664153709
 20
231.4870717653407
 30
0.0
 10
249.4261664153709
 20
230.7693464959427
 30
0.0
 10
249.4261664153709
 20
230.3561153392302
 30
0.0
 10
249.4261664153709
 20
230.1316900690366
 30
0.0
 10
249.4261664153709
 20
230.0149596818382
 30
0.0
 10
249.4261664153709
 20
229.9321990718096
 30
0.0
 10
249.4261664153709
 20
229.8803953711225
 30
0.0
 10
249.4261664153709
 20
229.874018551259
 30
0.0
 10
249.4261664153709
 20
229.8708262505509
 30
0.0
  0
SPLINE
  5
286
330
1F
100
AcDbEntity
  8
0
  6
SLD-Сплошная
 62
     7
370
    25
100
AcDbSpline
210
0.0
220
0.0
230
1.0
 70
     8
 71
     3
 72
    15
 73
    11
 74
     0
 42
0.00000001
 43
0.00000001
 40
0.0
 40
0.0
 40
0.0
 40
0.0
 40
0.0976985828816814
 40
0.1957892262349318
 40
0.2949700121657502
 40
0.3959279163886645
 40
0.4993247720733842
 40
0.6690282640360972
 40
0.8349917954026564
 40
0.9999999999999999
 40
0.9999999999999999
 40
0.9999999999999999
 40
0.9999999999999999
 10
243.5515258658999
 20
256.0208262519469
 30
0.0
 10
243.5570316676854
 20
256.0200693475733
 30
0.0
 10
243.5680653658169
 20
256.0185525013994
 30
0.0
 10
243.5897710124534
 20
256.0061414630268
 30
0.0
 10
243.6148337259783
 20
255.9861798591318
 30
0.0
 10
243.6433373884445
 20
255.9578473572065
 30
0.0
 10
243.6812734807765
 20
255.9138618214754
 30
0.0
 10
243.7290545440763
 20
255.8490617512941
 30
0.0
 10
243.7848293527049
 20
255.7580590366033
 30
0.0
 10
243.8186103198269
 20
255.6841394083254
 30
0.0
 10
243.8354520501883
 20
255.6472862761052
 30
0.0
  0
SPLINE
  5
287
330
1F
100
AcDbEntity
  8
0
  6
SLD-Сплошная
 62
     7
370
    25
100
AcDbSpline
210
0.0
220
0.0
230
1.0
 70
     8
 71
     3
 72
    37
 73
    33
 74
     0
 42
0.00000001
 43
0.00000001
 40
0.0
 40
0.0
 40
0.0
 40
0.0
 40
0.0138479764763516
 40
0.0281644032768942
 40
0.0429491335348689
 40
0.0582020067909375
 40
0.0739228490265117
 40
0.090111472692414
 40
0.1067676767337309
 40
0.1238912466115728
 40
0.1853864437526075
 40
0.243635593720313
 40
0.3205241053071345
 40
0.3795218770609174
 40
0.4326518497145744
 40
0.4976982491071559
 40
0.5338558055298837
 40
0.5632882109137286
 40
0.6249712638084668
 40
0.641292640731803
 40
0.6553070792180292
 40
0.6864612208514312
 40
0.742919383152889
 40
0.7829715118070949
 40
0.806802729664083
 40
0.8364151347370786
 40
0.8725459888353636
 40
0.9096148908430256
 40
0.9291475553783384
 40
0.9469420178035333
 40
0.9708882283082154
 40
1.0
 40
1.0
 40
1.0
 40
1.0
 10
243.5261664144974
 20
274.1208262486892
 30
0.0
 10
243.5261664139017
 20
274.1200205720064
 30
0.0
 10
243.5261664126903
 20
274.118381964153
 30
0.0
 10
243.5261664429445
 20
274.1048137060395
 30
0.0
 10
243.5261666252554
 20
274.0821355974177
 30
0.0
 10
243.5261671565151
 20
274.0486645260016
 30
0.0
 10
243.5261683045632
 20
274.0037396760456
 30
0.0
 10
243.5261704452653
 20
273.94638140719
 30
0.0
 10
243.5261739141311
 20
273.8757013729795
 30
0.0
 10
243.5261844322016
 20
273.7179937408561
 30
0.0
 10
243.5262066385719
 20
273.4170415784366
 30
0.0
 10
243.5262156221467
 20
272.8276620560716
 30
0.0
 10
243.5262051876841
 20
272.0722873629744
 30
0.0
 10
243.5261779146238
 20
271.1751620191008
 30
0.0
 10
243.5261636596913
 20
270.2148578228791
 30
0.0
 10
243.5261667817827
 20
269.2659785866975
 30
0.0
 10
243.5261665437544
 20
268.3885092441068
 30
0.0
 10
243.5261739929955
 20
267.4889816494243
 30
0.0
 10
243.5261719014145
 20
266.6819188923184
 30
0.0
 10
243.5261869749361
 20
265.9553113583399
 30
0.0
 10
243.5261995112781
 20
265.4614841462931
 30
0.0
 10
243.526201948452
 20
264.6272061979178
 30
0.0
 10
243.5262193210629
 20
263.5310651230813
 30
0.0
 10
243.5262109478236
 20
262.4568470596035
 30
0.0
 10
243.526204635605
 20
261.6020971850472
 30
0.0
 10
243.5261919747807
 20
260.7684569240614
 30
0.0
 10
243.5261805177928
 20
259.7918385687257
 30
0.0
 10
243.5261837759488
 20
258.8921798496597
 30
0.0
 10
243.5261712470848
 20
258.1623913575579
 30
0.0
 10
243.5261667400682
 20
257.556386786505
 30
0.0
 10
243.526166427325
 20
256.8497937893643
 30
0.0
 10
243.5261664191407
 20
256.3145196445036
 30
0.0
 10
243.5261664146502
 20
256.0208262537523
 30
0.0
  0
ARC
  5
288
330
1F
100
AcDbEntity
  8
0
  6
SLD-Сплошная
 62
     7
370
    25
100
AcDbCircle
 10
245.2761664143
 20
274.1208262523
 30
0.0
 40
1.749999999816737
100
AcDbArc
 50
89.9999993234
 51
180.0000001174
  0
SPLINE
  5
289
330
1F
100
AcDbEntity
  8
0
  6
SLD-Сплошная
 62
     7
370
    25
100
AcDbSpline
210
0.0
220
0.0
230
1.0
 70
     8
 71
     3
 72
    14
 73
    10
 74
     0
 42
0.00000001
 43
0.00000001
 40
0.0
 40
0.0
 40
0.0
 40
0.0
 40
0.25
 40
0.25
 40
0.5
 40
0.5
 40
0.75
 40
0.75
 40
1.0
 40
1.0
 40
1.0
 40
1.0
 10
245.2761923900699
 20
258.1458400819508
 30
0.0
 10
245.276190227447
 20
260.6749659085621
 30
0.0
 10
245.2761880647566
 20
263.086852749737
 30
0.0
 10
245.2761837392203
 20
267.4271675944014
 30
0.0
 10
245.2761815763741
 20
269.3548042402758
 30
0.0
 10
245.2761772505211
 20
272.5260446189843
 30
0.0
 10
245.2761750875142
 20
273.7690701483212
 30
0.0
 10
245.2761707613512
 20
275.4416134399735
 30
0.0
 10
245.2761685981952
 20
275.8708262520911
 30
0.0
 10
245.2761664349783
 20
275.8708262520911
 30
0.0
  0
SPLINE
  5
28A
330
1F
100
AcDbEntity
  8
0
  6
SLD-Сплошная
 62
     7
370
    25
100
AcDbSpline
210
0.0
220
0.0
230
1.0
 70
     8
 71
     3
 72
    14
 73
    10
 74
     0
 42
0.00000001
 43
0.00000001
 40
0.0
 40
0.0
 40
0.0
 40
0.0
 40
0.2500000000000001
 40
0.2500000000000001
 40
0.5000000000000002
 40
0.5000000000000002
 40
0.7500000000000001
 40
0.7500000000000001
 40
1.0
 40
1.0
 40
1.0
 40
1.0
 10
245.2761664375564
 20
227.1708262517139
 30
0.0
 10
245.2761686206655
 20
227.1708262517254
 30
0.0
 10
245.2761708037266
 20
227.6000390657649
 30
0.0
 10
245.2761751697362
 20
229.2725823646909
 30
0.0
 10
245.2761773526848
 20
230.5156078993758
 30
0.0
 10
245.2761817184653
 20
233.6868482910937
 30
0.0
 10
245.2761839012971
 20
235.6144849446219
 30
0.0
 10
245.2761882668514
 20
239.9547998052394
 30
0.0
 10
245.276190449574
 20
242.3666866547035
 30
0.0
 10
245.2761926322515
 20
244.895812488949
 30
0.0
  0
ARC
  5
28B
330
1F
100
AcDbEntity
  8
0
  6
SLD-Сплошная
 62
     7
370
    25
100
AcDbCircle
 10
245.276166415
 20
228.9208262515
 30
0.0
 40
1.749999999316316
100
AcDbArc
 50
179.9999998794
 51
270.0000007386
  0
SPLINE
  5
28C
330
1F
100
AcDbEntity
  8
0
  6
SLD-Сплошная
 62
     7
370
    25
100
AcDbSpline
210
0.0
220
0.0
230
1.0
 70
     8
 71
     3
 72
    37
 73
    33
 74
     0
 42
0.00000001
 43
0.00000001
 40
0.0
 40
0.0
 40
0.0
 40
0.0
 40
0.0139608164631438
 40
0.0280404274275371
 40
0.0422386968527485
 40
0.0565554851674863
 40
0.0709906492727253
 40
0.0804403270717772
 40
0.0896360101750581
 40
0.1073444241993139
 40
0.1428867603769583
 40
0.2143932464327578
 40
0.2848564014521135
 40
0.3566538360502183
 40
0.4276206419183297
 40
0.4976866899116804
 40
0.5338452226284813
 40
0.5705108773656674
 40
0.6249669708144933
 40
0.6384755230817747
 40
0.6520951583627582
 40
0.6781674386610452
 40
0.7278164119313986
 40
0.7557585171897264
 40
0.785309850686507
 40
0.8068101895056412
 40
0.8316958550396664
 40
0.892829322797485
 40
0.9263978882288094
 40
0.9559481258315289
 40
0.9777615860989496
 40
1.0
 40
1.0
 40
1.0
 40
1.0
 10
243.5261664146344
 20
247.020826250123
 30
0.0
 10
243.5261664140739
 20
246.8798240555426
 30
0.0
 10
243.5261664129482
 20
246.5966198593775
 30
0.0
 10
243.5261664424088
 20
246.1723458656641
 30
0.0
 10
243.5261666351851
 20
245.7464466076631
 30
0.0
 10
243.5261671679474
 20
245.3192997439817
 30
0.0
 10
243.5261682807264
 20
244.9415797934309
 30
0.0
 10
243.5261696804503
 20
244.6161494827177
 30
0.0
 10
243.5261691027349
 20
244.2596374791509
 30
0.0
 10
243.5261749956767
 20
243.6520485392103
 30
0.0
 10
243.5261917226624
 20
242.453794909196
 30
0.0
 10
243.5262174798103
 20
240.7996263085493
 30
0.0
 10
243.5262087430943
 20
238.9071063145486
 30
0.0
 10
243.5261936764907
 20
237.1390228506372
 30
0.0
 10
243.5261606655591
 20
235.5046684822656
 30
0.0
 10
243.5261670606547
 20
234.2740592365451
 30
0.0
 10
243.5261665282468
 20
233.367705748201
 30
0.0
 10
243.5261745917347
 20
232.6140441935407
 30
0.0
 10
243.526173322303
 20
232.0478195211101
 30
0.0
 10
243.5261856687761
 20
231.6434350042187
 30
0.0
 10
243.5261972704985
 20
231.3889107534931
 30
0.0
 10
243.5262016280521
 20
230.9811169890979
 30
0.0
 10
243.5262144450143
 20
230.5590686744497
 30
0.0
 10
243.5262155385858
 20
230.1761038423998
 30
0.0
 10
243.5262086729088
 20
229.9230561489879
 30
0.0
 10
243.5262051863531
 20
229.7064546498918
 30
0.0
 10
243.5261883781198
 20
229.4318250505677
 30
0.0
 10
243.5261854071574
 20
229.1992763194125
 30
0.0
 10
243.5261731354774
 20
229.0380593406811
 30
0.0
 10
243.5261660980777
 20
228.9636769808347
 30
0.0
 10
243.526166536024
 20
228.9271003464171
 30
0.0
 10
243.5261664555646
 20
228.9229310256087
 30
0.0
 10
243.5261664149469
 20
228.9208262551858
 30
0.0
  0
SPLINE
  5
28D
330
1F
100
AcDbEntity
  8
0
  6
SLD-Сплошная
 62
     7
370
    25
100
AcDbSpline
210
0.0
220
0.0
230
1.0
 70
     8
 71
     3
 72
    15
 73
    11
 74
     0
 42
0.00000001
 43
0.00000001
 40
0.0
 40
0.0
 40
0.0
 40
0.0
 40
0.0989056637830471
 40
0.1976904623852984
 40
0.2969615643431032
 40
0.397318902481372
 40
0.4993444030183158
 40
0.670952180632336
 40
0.8367738079464329
 40
1.0
 40
1.0
 40
1.0
 40
1.0
 10
243.8354520702739
 20
247.3943661059691
 30
0.0
 10
243.8255075420965
 20
247.3719542307408
 30
0.0
 10
243.8056306382022
 20
247.3271578681531
 30
0.0
 10
243.7736507268051
 20
247.266914159337
 30
0.0
 10
243.7408621250733
 20
247.2121175547328
 30
0.0
 10
243.7076800415911
 20
247.1633150555302
 30
0.0
 10
243.6675937257068
 20
247.1109173641546
 30
0.0
 10
243.6239138367504
 20
247.0626011517716
 30
0.0
 10
243.5807126866179
 20
247.0272643875105
 30
0.0
 10
243.5612035118641
 20
247.0229609824455
 30
0.0
 10
243.5515258658876
 20
247.0208262519282
 30
0.0
  0
ARC
  5
28E
330
1F
100
AcDbEntity
  8
0
  6
SLD-Сплошная
 62
     7
370
    25
100
AcDbCircle
 10
245.3323255264
 20
228.9199249242
 30
0.0
 40
1.750000001783574
100
AcDbArc
 50
268.1610106855
 51
307.6832217222
  0
ARC
  5
28F
330
1F
100
AcDbEntity
  8
0
  6
SLD-Сплошная
 62
     7
370
    25
100
AcDbCircle
 10
245.3323255264
 20
274.1217275825
 30
0.0
 40
1.749999999204141
100
AcDbArc
 50
52.3167782194
 51
91.8389894007
  0
ARC
  5
290
330
1F
100
AcDbEntity
  8
0
  6
SLD-Сплошная
 62
     7
370
    25
100
AcDbCircle
 10
242.9261664154
 20
251.5208262519
 30
0.0
 40
1.650000000000034
100
AcDbArc
 50
90.0
 51
270.0
  0
ARC
  5
291
330
1F
100
AcDbEntity
  8
0
  6
SLD-Сплошная
 62
     7
370
    25
100
AcDbCircle
 10
242.9261664154
 20
251.5208262519
 30
0.0
 40
1.650000000000034
100
AcDbArc
 50
270.0
 51
90.0
  0
SPLINE
  5
292
330
1F
100
AcDbEntity
  8
0
  6
SLD-Сплошная
 62
     7
370
    25
100
AcDbSpline
210
0.0
220
0.0
230
1.0
 70
     8
 71
     3
 72
    12
 73
     8
 74
     0
 42
0.00000001
 43
0.00000001
 40
0.0
 40
0.0
 40
0.0
 40
0.0
 40
0.1260379726948468
 40
0.2603509092812301
 40
0.4025471028748893
 40
0.6265885607447647
 40
1.0
 40
1.0
 40
1.0
 40
1.0
 10
243.8354271432402
 20
255.6472892818306
 30
0.0
 10
243.8461596273852
 20
255.6232031173996
 30
0.0
 10
243.8683292318804
 20
255.5734494227264
 30
0.0
 10
243.9100650087288
 20
255.4927096885047
 30
0.0
 10
243.9672471401795
 20
255.3897746485313
 30
0.0
 10
244.0562061943257
 20
255.2306195687972
 30
0.0
 10
244.1374823865568
 20
255.101516464092
 30
0.0
 10
244.1882804663121
 20
255.0208262935827
 30
0.0
  0
LINE
  5
293
330
1F
100
AcDbEntity
  8
0
  6
SLD-Сплошная
 62
     7
370
    25
100
AcDbLine
 10
242.9261666652
 20
256.0208262519
 30
0.0
 11
243.5515258662
 21
256.0208262519
 31
0.0
  0
SPLINE
  5
294
330
1F
100
AcDbEntity
  8
0
  6
SLD-Сплошная
 62
     7
370
    25
100
AcDbSpline
210
0.0
220
0.0
230
1.0
 70
     8
 71
     3
 72
     8
 73
     4
 74
     0
 42
0.00000001
 43
0.00000001
 40
0.0
 40
0.0
 40
0.0
 40
0.0
 40
1.0
 40
1.0
 40
1.0
 40
1.0
 10
245.276192632233
 20
244.8958128257515
 30
0.0
 10
245.2791720145028
 20
244.9464463179421
 30
0.0
 10
245.2819040643123
 20
244.9929271655613
 30
0.0
 10
245.2841917244136
 20
245.0319414382144
 30
0.0
  0
SPLINE
  5
295
330
1F
100
AcDbEntity
  8
0
  6
SLD-Сплошная
 62
     7
370
    25
100
AcDbSpline
210
0.0
220
0.0
230
1.0
 70
     8
 71
     3
 72
     8
 73
     4
 74
     0
 42
0.00000001
 43
0.00000001
 40
0.0
 40
0.0
 40
0.0
 40
0.0
 40
1.0
 40
1.0
 40
1.0
 40
1.0
 10
245.2841915377179
 20
258.0097110643816
 30
0.0
 10
245.281904164937
 20
258.0487242996839
 30
0.0
 10
245.2791722720515
 20
258.0952052474922
 30
0.0
 10
245.2761923900517
 20
258.1458397494396
 30
0.0
  0
LINE
  5
296
330
1F
100
AcDbEntity
  8
0
  6
SLD-Сплошная
 62
     7
370
    25
100
AcDbLine
 10
243.5515258662
 20
247.0208262519
 30
0.0
 11
242.9261666652
 21
247.0208262519
 31
0.0
  0
SPLINE
  5
297
330
1F
100
AcDbEntity
  8
0
  6
SLD-Сплошная
 62
     7
370
    25
100
AcDbSpline
210
0.0
220
0.0
230
1.0
 70
     8
 71
     3
 72
    15
 73
    11
 74
     0
 42
0.00000001
 43
0.00000001
 40
0.0
 40
0.0
 40
0.0
 40
0.0
 40
0.1355258126763664
 40
0.2535327842660597
 40
0.3535830975155489
 40
0.4354934974433986
 40
0.4992537458894819
 40
0.6844559971768284
 40
0.8514743756343849
 40
1.0
 40
1.0
 40
1.0
 40
1.0
 10
244.1882804390301
 20
248.0208263788714
 30
0.0
 10
244.1699334890071
 20
247.9915321681957
 30
0.0
 10
244.1356112205752
 20
247.9367304839348
 30
0.0
 10
244.0883288889649
 20
247.8605155110009
 30
0.0
 10
244.0493375814635
 20
247.795957312542
 30
0.0
 10
244.018429445406
 20
247.743202532262
 30
0.0
 10
243.9777082772843
 20
247.6726699102214
 30
0.0
 10
243.928425538743
 20
247.5857227719921
 30
0.0
 10
243.8751587838567
 20
247.48361700088
 30
0.0
 10
243.848142811171
 20
247.4229287814161
 30
0.0
 10
243.8354264731163
 20
247.3943630168733
 30
0.0
  0
ARC
  5
298
330
1F
100
AcDbEntity
  8
0
  6
SLD-Сплошная
 62
     7
370
    25
100
AcDbCircle
 10
242.9261664151
 20
251.520826252
 30
0.0
 40
4.50000000002408
100
AcDbArc
 50
89.9999968152
 51
270.0000031848
  0
LINE
  5
299
330
1F
100
AcDbEntity
  8
0
  6
SLD-Сплошная
 62
     7
370
    25
100
AcDbLine
 10
268.6435464804
 20
241.3739055368
 30
0.0
 11
261.6435464804
 21
241.3739055368
 31
0.0
  0
LINE
  5
29A
330
1F
100
AcDbEntity
  8
0
  6
SLD-Сплошная
 62
     7
370
    25
100
AcDbLine
 10
268.6435464804
 20
239.0572721829
 30
0.0
 11
268.6435464804
 21
241.3739055368
 31
0.0
  0
LINE
  5
29B
330
1F
100
AcDbEntity
  8
0
  6
SLD-Сплошная
 62
     7
370
    25
100
AcDbLine
 10
261.6435464804
 20
239.0572721829
 30
0.0
 11
268.6435464804
 21
239.0572721829
 31
0.0
  0
LINE
  5
29C
330
1F
100
AcDbEntity
  8
0
  6
SLD-Сплошная
 62
     7
370
    25
100
AcDbLine
 10
261.6435464804
 20
231.9053508562
 30
0.0
 11
261.6435464804
 21
239.0572721829
 31
0.0
  0
LINE
  5
29D
330
1F
100
AcDbEntity
  8
0
  6
SLD-Сплошная
 62
     7
370
    25
100
AcDbLine
 10
268.6435464804
 20
274.1313010362
 30
0.0
 11
268.6435464804
 21
274.1708262519
 31
0.0
  0
LINE
  5
29E
330
1F
100
AcDbEntity
  8
0
  6
SLD-Сплошная
 62
     7
370
    25
100
AcDbLine
 10
261.6435464804
 20
274.1313010362
 30
0.0
 11
268.6435464804
 21
274.1313010362
 31
0.0
  0
LINE
  5
29F
330
1F
100
AcDbEntity
  8
0
  6
SLD-Сплошная
 62
     7
370
    25
100
AcDbLine
 10
261.6435464804
 20
263.984380321
 30
0.0
 11
261.6435464804
 21
274.1313010362
 31
0.0
  0
LINE
  5
2A0
330
1F
100
AcDbEntity
  8
0
  6
SLD-Сплошная
 62
     7
370
    25
100
AcDbLine
 10
268.6435464804
 20
263.984380321
 30
0.0
 11
261.6435464804
 21
263.984380321
 31
0.0
  0
LINE
  5
2A1
330
1F
100
AcDbEntity
  8
0
  6
SLD-Сплошная
 62
     7
370
    25
100
AcDbLine
 10
268.6435464804
 20
261.6677469671
 30
0.0
 11
268.6435464804
 21
263.984380321
 31
0.0
  0
LINE
  5
2A2
330
1F
100
AcDbEntity
  8
0
  6
SLD-Сплошная
 62
     7
370
    25
100
AcDbLine
 10
261.6435464804
 20
261.6677469671
 30
0.0
 11
268.6435464804
 21
261.6677469671
 31
0.0
  0
LINE
  5
2A3
330
1F
100
AcDbEntity
  8
0
  6
SLD-Сплошная
 62
     7
370
    25
100
AcDbLine
 10
261.6435464804
 20
241.3739055368
 30
0.0
 11
261.6435464804
 21
261.6677469671
 31
0.0
  0
LINE
  5
2A4
330
1F
100
AcDbEntity
  8
0
  6
SLD-Сплошная
 62
     7
370
    25
100
AcDbLine
 10
258.6435464804
 20
274.1708262519
 30
0.0
 11
258.6435464804
 21
231.9053508562
 31
0.0
  0
LINE
  5
2A5
330
1F
100
AcDbEntity
  8
0
  6
SLD-Сплошная
 62
     7
370
    25
100
AcDbLine
 10
268.6435464804
 20
261.6677469671
 30
0.0
 11
268.6435464804
 21
252.5208262519
 31
0.0
  0
LINE
  5
2A6
330
1F
100
AcDbEntity
  8
0
  6
SLD-Сплошная
 62
     7
370
    25
100
AcDbLine
 10
268.6435464804
 20
252.5208262519
 30
0.0
 11
281.6435464804
 21
252.5208262519
 31
0.0
  0
LINE
  5
2A7
330
1F
100
AcDbEntity
  8
0
  6
SLD-Сплошная
 62
     7
370
    25
100
AcDbLine
 10
281.6435464804
 20
252.5208262519
 30
0.0
 11
281.6435464804
 21
250.5208262519
 31
0.0
  0
LINE
  5
2A8
330
1F
100
AcDbEntity
  8
0
  6
SLD-Сплошная
 62
     7
370
    25
100
AcDbLine
 10
268.6435464804
 20
250.5208262519
 30
0.0
 11
281.6435464804
 21
250.5208262519
 31
0.0
  0
LINE
  5
2A9
330
1F
100
AcDbEntity
  8
0
  6
SLD-Сплошная
 62
     7
370
    25
100
AcDbLine
 10
268.6435464804
 20
250.5208262519
 30
0.0
 11
268.6435464804
 21
241.3739055368
 31
0.0
  0
LINE
  5
2AA
330
1F
100
AcDbEntity
  8
0
  6
SLD-Сплошная
 62
     7
370
    25
100
AcDbLine
 10
268.6435464804
 20
235.198909744
 30
0.0
 11
281.6435464804
 21
235.198909744
 31
0.0
  0
LINE
  5
2AB
330
1F
100
AcDbEntity
  8
0
  6
SLD-Сплошная
 62
     7
370
    25
100
AcDbLine
 10
281.6435464804
 20
250.5208262519
 30
0.0
 11
281.6435464804
 21
235.198909744
 31
0.0
  0
LINE
  5
2AC
330
1F
100
AcDbEntity
  8
0
  6
SLD-Сплошная
 62
     7
370
    25
100
AcDbLine
 10
281.6435464804
 20
267.8427427599
 30
0.0
 11
268.6435464804
 21
267.8427427599
 31
0.0
  0
LINE
  5
2AD
330
1F
100
AcDbEntity
  8
0
  6
SLD-Сплошная
 62
     7
370
    25
100
AcDbLine
 10
281.6435464804
 20
267.8427427599
 30
0.0
 11
281.6435464804
 21
252.5208262519
 31
0.0
  0
LINE
  5
2AE
330
1F
100
AcDbEntity
  8
0
  6
SLD-Сплошная
 62
     7
370
    25
100
AcDbLine
 10
268.6435464804
 20
233.4838118253
 30
0.0
 11
281.6435464804
 21
233.4838118253
 31
0.0
  0
LINE
  5
2AF
330
1F
100
AcDbEntity
  8
0
  6
SLD-Сплошная
 62
     7
370
    25
100
AcDbLine
 10
268.6435464804
 20
233.4838118253
 30
0.0
 11
268.6435464804
 21
228.9103514677
 31
0.0
  0
LINE
  5
2B0
330
1F
100
AcDbEntity
  8
0
  6
SLD-Сплошная
 62
     7
370
    25
100
AcDbLine
 10
268.6435464804
 20
228.9103514677
 30
0.0
 11
261.6435464804
 21
228.9103514677
 31
0.0
  0
LINE
  5
2B1
330
1F
100
AcDbEntity
  8
0
  6
SLD-Сплошная
 62
     7
370
    25
100
AcDbLine
 10
268.6435464804
 20
234.4838118253
 30
0.0
 11
281.6435464804
 21
234.4838118253
 31
0.0
  0
LINE
  5
2B2
330
1F
100
AcDbEntity
  8
0
  6
SLD-Сплошная
 62
     7
370
    25
100
AcDbLine
 10
281.6435464804
 20
234.4838118253
 30
0.0
 11
281.6435464804
 21
233.4838118253
 31
0.0
  0
LINE
  5
2B3
330
1F
100
AcDbEntity
  8
0
  6
SLD-Сплошная
 62
     7
370
    25
100
AcDbLine
 10
268.6435464804
 20
239.0572721829
 30
0.0
 11
268.6435464804
 21
234.4838118253
 31
0.0
  0
LINE
  5
2B4
330
1F
100
AcDbEntity
  8
0
  6
SLD-Сплошная
 62
     7
370
    25
100
AcDbLine
 10
268.6435464804
 20
274.1313010362
 30
0.0
 11
268.6435464804
 21
269.5578406786
 31
0.0
  0
LINE
  5
2B5
330
1F
100
AcDbEntity
  8
0
  6
SLD-Сплошная
 62
     7
370
    25
100
AcDbLine
 10
268.6435464804
 20
269.5578406786
 30
0.0
 11
281.6435464804
 21
269.5578406786
 31
0.0
  0
LINE
  5
2B6
330
1F
100
AcDbEntity
  8
0
  6
SLD-Сплошная
 62
     7
370
    25
100
AcDbLine
 10
268.6435464804
 20
268.5578406786
 30
0.0
 11
281.6435464804
 21
268.5578406786
 31
0.0
  0
LINE
  5
2B7
330
1F
100
AcDbEntity
  8
0
  6
SLD-Сплошная
 62
     7
370
    25
100
AcDbLine
 10
268.6435464804
 20
268.5578406786
 30
0.0
 11
268.6435464804
 21
263.984380321
 31
0.0
  0
LINE
  5
2B8
330
1F
100
AcDbEntity
  8
0
  6
SLD-Сплошная
 62
     7
370
    25
100
AcDbLine
 10
281.6435464804
 20
269.5578406786
 30
0.0
 11
281.6435464804
 21
268.5578406786
 31
0.0
  0
LINE
  5
2B9
330
1F
100
AcDbEntity
  8
0
  6
SLD-Сплошная
 62
     7
370
    25
100
AcDbLine
 10
249.4261664154
 20
268.7708262519
 30
0.0
 11
258.6435464809
 21
268.7708262519
 31
0.0
  0
LINE
  5
2BA
330
1F
100
AcDbEntity
  8
0
  6
SLD-Сплошная
 62
     7
370
    25
100
AcDbLine
 10
249.4261664154
 20
234.2708262519
 30
0.0
 11
258.6435464809
 21
234.2708262519
 31
0.0
  0
LINE
  5
2BB
330
1F
100
AcDbEntity
  8
0
  6
SLD-Сплошная
 62
     7
370
    25
100
AcDbLine
 10
268.6435464804
 20
228.8708262519
 30
0.0
 11
268.6435464804
 21
228.9103514677
 31
0.0
  0
LINE
  5
2BC
330
1F
100
AcDbEntity
  8
0
  6
SLD-Сплошная
 62
     7
370
    25
100
AcDbLine
 10
261.6435464804
 20
228.9103514677
 30
0.0
 11
261.6435464804
 21
231.9053508562
 31
0.0
  0
LINE
  5
2BD
330
1F
100
AcDbEntity
  8
0
  6
SLD-Сплошная
 62
     7
370
    25
100
AcDbLine
 10
258.6435464804
 20
231.9053508562
 30
0.0
 11
258.6435464804
 21
228.8708262519
 31
0.0
  0
LINE
  5
2BE
330
1F
100
AcDbEntity
  8
0
  6
SLD-Сплошная
 62
     7
370
    25
100
AcDbLine
 10
281.6435464804
 20
235.198909744
 30
0.0
 11
281.6435464804
 21
234.4838118253
 31
0.0
  0
LINE
  5
2BF
330
1F
100
AcDbEntity
  8
0
  6
SLD-Сплошная
 62
     7
370
    25
100
AcDbLine
 10
281.6435464804
 20
268.5578406786
 30
0.0
 11
281.6435464804
 21
267.8427427599
 31
0.0
  0
LINE
  5
2C0
330
1F
100
AcDbEntity
  8
0
  6
SLD-Сплошная
 62
     7
370
    25
100
AcDbLine
 10
281.6435464804
 20
232.0708262519
 30
0.0
 11
281.6435464804
 21
233.4838118253
 31
0.0
  0
LINE
  5
2C1
330
1F
100
AcDbEntity
  8
0
  6
SLD-Сплошная
 62
     7
370
    25
100
AcDbLine
 10
281.6435464804
 20
269.5578406786
 30
0.0
 11
281.6435464804
 21
270.9708262519
 31
0.0
  0
LINE
  5
2C2
330
1F
100
AcDbEntity
  8
0
  6
SLD-Сплошная
 62
     7
370
    25
100
AcDbLine
 10
134.5261664153
 20
251.7136166187
 30
0.0
 11
134.5261664153
 21
248.0208262366
 31
0.0
  0
LINE
  5
2C3
330
1F
100
AcDbEntity
  8
0
  6
SLD-Сплошная
 62
     7
370
    25
100
AcDbLine
 10
134.5261664153
 20
255.0208262366
 30
0.0
 11
134.5261664153
 21
251.7136166187
 31
0.0
  0
LINE
  5
2C4
330
1F
100
AcDbEntity
  8
0
  6
SLD-Сплошная
 62
     7
370
    25
100
AcDbLine
 10
163.6261664153
 20
287.0524179292
 30
0.0
 11
165.6261664153
 21
287.0524179292
 31
0.0
  0
LINE
  5
2C5
330
1F
100
AcDbEntity
  8
0
  6
SLD-Сплошная
 62
     7
370
    25
100
AcDbLine
 10
165.6261664153
 20
268.119536784
 30
0.0
 11
165.6261664153
 21
287.0524179292
 31
0.0
  0
LINE
  5
2C6
330
1F
100
AcDbEntity
  8
0
  6
SLD-Сплошная
 62
     7
370
    25
100
AcDbLine
 10
165.6261664153
 20
268.119536784
 30
0.0
 11
179.6261664153
 21
268.119536784
 31
0.0
  0
LINE
  5
2C7
330
1F
100
AcDbEntity
  8
0
  6
SLD-Сплошная
 62
     7
370
    25
100
AcDbLine
 10
179.6261664153
 20
265.8646647761
 30
0.0
 11
179.6261664153
 21
268.119536784
 31
0.0
  0
LINE
  5
2C8
330
1F
100
AcDbEntity
  8
0
  6
SLD-Сплошная
 62
     7
370
    25
100
AcDbLine
 10
165.6261664153
 20
265.8646647761
 30
0.0
 11
179.6261664153
 21
265.8646647761
 31
0.0
  0
LINE
  5
2C9
330
1F
100
AcDbEntity
  8
0
  6
SLD-Сплошная
 62
     7
370
    25
100
AcDbLine
 10
165.6261664153
 20
241.3154335993
 30
0.0
 11
165.6261664153
 21
265.8646647761
 31
0.0
  0
LINE
  5
2CA
330
1F
100
AcDbEntity
  8
0
  6
SLD-Сплошная
 62
     7
370
    25
100
AcDbLine
 10
165.6261664153
 20
241.3154335993
 30
0.0
 11
179.6261664153
 21
241.3154335993
 31
0.0
  0
LINE
  5
2CB
330
1F
100
AcDbEntity
  8
0
  6
SLD-Сплошная
 62
     7
370
    25
100
AcDbLine
 10
179.6261664153
 20
241.3154335993
 30
0.0
 11
179.6261664153
 21
238.9866168668
 31
0.0
  0
LINE
  5
2CC
330
1F
100
AcDbEntity
  8
0
  6
SLD-Сплошная
 62
     7
370
    25
100
AcDbLine
 10
165.6261664153
 20
238.9866168668
 30
0.0
 11
179.6261664153
 21
238.9866168668
 31
0.0
  0
LINE
  5
2CD
330
1F
100
AcDbEntity
  8
0
  6
SLD-Сплошная
 62
     7
370
    25
100
AcDbLine
 10
165.6261664153
 20
218.4094435334
 30
0.0
 11
165.6261664153
 21
238.9866168668
 31
0.0
  0
LINE
  5
2CE
330
1F
100
AcDbEntity
  8
0
  6
SLD-Сплошная
 62
     7
370
    25
100
AcDbLine
 10
165.6261664153
 20
218.4094435334
 30
0.0
 11
179.6261664153
 21
218.4094435334
 31
0.0
  0
LINE
  5
2CF
330
1F
100
AcDbEntity
  8
0
  6
SLD-Сплошная
 62
     7
370
    25
100
AcDbLine
 10
179.6261664153
 20
216.8962109147
 30
0.0
 11
179.6261664153
 21
218.4094435334
 31
0.0
  0
LINE
  5
2D0
330
1F
100
AcDbEntity
  8
0
  6
SLD-Сплошная
 62
     7
370
    25
100
AcDbLine
 10
165.6261664153
 20
216.8962109147
 30
0.0
 11
179.6261664153
 21
216.8962109147
 31
0.0
  0
LINE
  5
2D1
330
1F
100
AcDbEntity
  8
0
  6
SLD-Сплошная
 62
     7
370
    25
100
AcDbLine
 10
165.6261664153
 20
208.1508762457
 30
0.0
 11
165.6261664153
 21
216.8962109147
 31
0.0
  0
LINE
  5
2D2
330
1F
100
AcDbEntity
  8
0
  6
SLD-Сплошная
 62
     7
370
    25
100
AcDbLine
 10
165.6261664153
 20
208.1508762457
 30
0.0
 11
179.6261664153
 21
208.1508762457
 31
0.0
  0
LINE
  5
2D3
330
1F
100
AcDbEntity
  8
0
  6
SLD-Сплошная
 62
     7
370
    25
100
AcDbLine
 10
179.6261664153
 20
208.0312311681
 30
0.0
 11
179.6261664153
 21
208.1508762457
 31
0.0
  0
LINE
  5
2D4
330
1F
100
AcDbEntity
  8
0
  6
SLD-Сплошная
 62
     7
370
    25
100
AcDbLine
 10
165.6261664153
 20
208.0312311681
 30
0.0
 11
179.6261664153
 21
208.0312311681
 31
0.0
  0
LINE
  5
2D5
330
1F
100
AcDbEntity
  8
0
  6
SLD-Сплошная
 62
     7
370
    25
100
AcDbLine
 10
165.6261664153
 20
208.0208262366
 30
0.0
 11
165.6261664153
 21
208.0312311681
 31
0.0
  0
LINE
  5
2D6
330
1F
100
AcDbEntity
  8
0
  6
SLD-Сплошная
 62
     7
370
    25
100
AcDbLine
 10
159.6261664153
 20
208.0208262366
 30
0.0
 11
159.6261664153
 21
287.937682275
 31
0.0
  0
LWPOLYLINE
  5
2D7
330
1F
100
AcDbEntity
  8
0
  6
SLD-Сплошная
 62
     7
370
    25
100
AcDbPolyline
 90
        9
 70
   128
 43
0.0
 10
166.6261664182
 20
264.9345177219
 10
166.5012305172
 20
265.0508029321
 10
166.3762761641
 20
265.1670832997
 10
166.2513033595
 20
265.283358824
 10
166.1263121043
 20
265.3996295044
 10
166.0013023993
 20
265.51589534
 10
165.8762742452
 20
265.6321563303
 10
165.7512276427
 20
265.7484124743
 10
165.6261664153
 20
265.8646647761
  0
LINE
  5
2D8
330
1F
100
AcDbEntity
  8
0
  6
SLD-Сплошная
 62
     7
370
    25
100
AcDbLine
 10
166.6261664182
 20
264.9345177219
 30
0.0
 11
166.6261664182
 21
242.0789344955
 31
0.0
  0
LWPOLYLINE
  5
2D9
330
1F
100
AcDbEntity
  8
0
  6
SLD-Сплошная
 62
     7
370
    25
100
AcDbPolyline
 90
        9
 70
   128
 43
0.0
 10
165.6261664153
 20
241.3154335993
 10
165.7512314655
 20
241.4108571877
 10
165.8762780681
 20
241.5062847547
 10
166.0013062224
 20
241.6017162996
 10
166.1263159276
 20
241.6971518218
 10
166.2513071829
 20
241.7925913207
 10
166.3762799876
 20
241.8880347957
 10
166.501234341
 20
241.9834822463
 10
166.6261664182
 20
242.0789344955
  0
LINE
  5
2DA
330
1F
100
AcDbEntity
  8
0
  6
SLD-Сплошная
 62
     7
370
    25
100
AcDbLine
 10
166.6261664182
 20
242.0789344955
 30
0.0
 11
179.6261664153
 21
242.0789344955
 31
0.0
  0
LINE
  5
2DB
330
1F
100
AcDbEntity
  8
0
  6
SLD-Сплошная
 62
     7
370
    25
100
AcDbLine
 10
179.6261664153
 20
241.3154335993
 30
0.0
 11
179.6261664153
 21
242.0789344955
 31
0.0
  0
LINE
  5
2DC
330
1F
100
AcDbEntity
  8
0
  6
SLD-Сплошная
 62
     7
370
    25
100
AcDbLine
 10
166.6261664153
 20
238.9866168668
 30
0.0
 11
166.6261664182
 21
220.0382756975
 31
0.0
  0
LWPOLYLINE
  5
2DD
330
1F
100
AcDbEntity
  8
0
  6
SLD-Сплошная
 62
     7
370
    25
100
AcDbPolyline
 90
        9
 70
   128
 43
0.0
 10
165.6261664153
 20
218.4094435334
 10
165.7512314655
 20
218.6130176365
 10
165.8762780681
 20
218.8166002272
 10
166.0013062224
 20
219.0201913042
 10
166.1263159276
 20
219.2237908663
 10
166.2513071829
 20
219.4273989122
 10
166.3762799876
 20
219.6310154407
 10
166.501234341
 20
219.8346404506
 10
166.6261664182
 20
220.0382756975
  0
LINE
  5
2DE
330
1F
100
AcDbEntity
  8
0
  6
SLD-Сплошная
 62
     7
370
    25
100
AcDbLine
 10
166.6261664182
 20
264.9345177219
 30
0.0
 11
179.6261664153
 21
264.9345177219
 31
0.0
  0
LINE
  5
2DF
330
1F
100
AcDbEntity
  8
0
  6
SLD-Сплошная
 62
     7
370
    25
100
AcDbLine
 10
179.6261664153
 20
264.9345177219
 30
0.0
 11
179.6261664153
 21
242.0789344955
 31
0.0
  0
LINE
  5
2E0
330
1F
100
AcDbEntity
  8
0
  6
SLD-Сплошная
 62
     7
370
    25
100
AcDbLine
 10
179.6261664153
 20
265.8646647761
 30
0.0
 11
179.6261664153
 21
264.9345177219
 31
0.0
  0
LWPOLYLINE
  5
2E1
330
1F
100
AcDbEntity
  8
0
  6
SLD-Сплошная
 62
     7
370
    25
100
AcDbPolyline
 90
        9
 70
   128
 43
0.0
 10
165.6261664153
 20
287.0524179292
 10
165.7476894024
 20
286.8455585103
 10
165.8691956438
 20
286.638691023
 10
165.9906851388
 20
286.4318154684
 10
166.1121578869
 20
286.2249318477
 10
166.2336138873
 20
286.018040162
 10
166.3550531394
 20
285.8111404124
 10
166.4764756426
 20
285.6042325999
 10
166.5978813961
 20
285.3973167258
  0
SPLINE
  5
2E2
330
1F
100
AcDbEntity
  8
0
  6
SLD-Сплошная
 62
     7
370
    25
100
AcDbSpline
210
0.0
220
0.0
230
1.0
 70
     8
 71
     3
 72
     8
 73
     4
 74
     0
 42
0.00000001
 43
0.00000001
 40
0.0
 40
0.0
 40
0.0
 40
0.0
 40
1.0
 40
1.0
 40
1.0
 40
1.0
 10
166.6261664153082
 20
285.3507573353943
 30
0.0
 10
166.6166970475457
 20
285.3657989600661
 30
0.0
 10
166.60724809686
 20
285.381351114909
 30
0.0
 10
166.5978813961004
 20
285.3973167257505
 30
0.0
  0
LINE
  5
2E3
330
1F
100
AcDbEntity
  8
0
  6
SLD-Сплошная
 62
     7
370
    25
100
AcDbLine
 10
166.6261664153
 20
285.3507573354
 30
0.0
 11
166.6261664153
 21
268.119536784
 31
0.0
  0
LINE
  5
2E4
330
1F
100
AcDbEntity
  8
0
  6
SLD-Сплошная
 62
     7
370
    25
100
AcDbLine
 10
166.6261664182
 20
220.0382756975
 30
0.0
 11
179.6261664153
 21
220.0382756975
 31
0.0
  0
LINE
  5
2E5
330
1F
100
AcDbEntity
  8
0
  6
SLD-Сплошная
 62
     7
370
    25
100
AcDbLine
 10
179.6261664153
 20
238.9866168668
 30
0.0
 11
179.6261664153
 21
220.0382756975
 31
0.0
  0
LINE
  5
2E6
330
1F
100
AcDbEntity
  8
0
  6
SLD-Сплошная
 62
     7
370
    25
100
AcDbLine
 10
179.6261664153
 20
285.3507573354
 30
0.0
 11
166.6261664153
 21
285.3507573354
 31
0.0
  0
LINE
  5
2E7
330
1F
100
AcDbEntity
  8
0
  6
SLD-Сплошная
 62
     7
370
    25
100
AcDbLine
 10
179.6261664153
 20
285.3507573354
 30
0.0
 11
179.6261664153
 21
268.119536784
 31
0.0
  0
LINE
  5
2E8
330
1F
100
AcDbEntity
  8
0
  6
SLD-Сплошная
 62
     7
370
    25
100
AcDbLine
 10
179.6261664153
 20
218.4094435334
 30
0.0
 11
179.6261664153
 21
220.0382756975
 31
0.0
  0
LINE
  5
2E9
330
1F
100
AcDbEntity
  8
0
  6
SLD-Сплошная
 62
     7
370
    25
100
AcDbLine
 10
166.6261664153
 20
216.8962109147
 30
0.0
 11
166.6261664182
 21
210.0228811529
 31
0.0
  0
LWPOLYLINE
  5
2EA
330
1F
100
AcDbEntity
  8
0
  6
SLD-Сплошная
 62
     7
370
    25
100
AcDbPolyline
 90
        9
 70
   128
 43
0.0
 10
165.6261664153
 20
208.1508762457
 10
165.7512314655
 20
208.3848424752
 10
165.8762780681
 20
208.6188184594
 10
166.0013062224
 20
208.8528041969
 10
166.1263159276
 20
209.0867996863
 10
166.2513071829
 20
209.3208049261
 10
166.3762799876
 20
209.5548199149
 10
166.501234341
 20
209.7888446512
 10
166.6261664182
 20
210.0228811529
  0
SPLINE
  5
2EB
330
1F
100
AcDbEntity
  8
0
  6
SLD-Сплошная
 62
     7
370
    25
100
AcDbSpline
210
0.0
220
0.0
230
1.0
 70
     8
 71
     3
 72
    11
 73
     7
 74
     0
 42
0.00000001
 43
0.00000001
 40
0.0
 40
0.0
 40
0.0
 40
0.0
 40
0.2303533029297739
 40
0.6077462720823383
 40
0.8024721680434587
 40
1.0
 40
1.0
 40
1.0
 40
1.0
 10
181.9798929335781
 20
290.1092678578942
 30
0.0
 10
181.9393893901249
 20
290.1657102568049
 30
0.0
 10
181.8325279853753
 20
290.3146235004576
 30
0.0
 10
181.5993139805906
 20
290.4423786484309
 30
0.0
 10
181.3548278016872
 20
290.5127061297937
 30
0.0
 10
181.2231665464089
 20
290.5194977776006
 30
0.0
 10
181.1568656792485
 20
290.5229178584595
 30
0.0
  0
SPLINE
  5
2EC
330
1F
100
AcDbEntity
  8
0
  6
SLD-Сплошная
 62
     7
370
    25
100
AcDbSpline
210
0.0
220
0.0
230
1.0
 70
     8
 71
     3
 72
    12
 73
     8
 74
     0
 42
0.00000001
 43
0.00000001
 40
0.0
 40
0.0
 40
0.0
 40
0.0
 40
0.1328810983748348
 40
0.3423489036979319
 40
0.565172492154001
 40
0.7880844311418043
 40
1.0
 40
1.0
 40
1.0
 40
1.0
 10
182.2591057878238
 20
289.2409808990176
 30
0.0
 10
182.2617355304637
 20
289.2180617077711
 30
0.0
 10
182.268510681488
 20
289.1590137310998
 30
0.0
 10
182.2576958752289
 20
288.912283794616
 30
0.0
 10
182.2307306122408
 20
288.568492351185
 30
0.0
 10
182.1880579934857
 20
288.182818931319
 30
0.0
 10
182.1562213605829
 20
287.9697218789483
 30
0.0
 10
182.140705603069
 20
287.8658678626769
 30
0.0
  0
SPLINE
  5
2ED
330
1F
100
AcDbEntity
  8
0
  6
SLD-Сплошная
 62
     7
370
    25
100
AcDbSpline
210
0.0
220
0.0
230
1.0
 70
     8
 71
     3
 72
     9
 73
     5
 74
     0
 42
0.00000001
 43
0.00000001
 40
0.0
 40
0.0
 40
0.0
 40
0.0
 40
0.2548639384231932
 40
1.0
 40
1.0
 40
1.0
 40
1.0
 10
182.1767316619267
 20
288.3107823598395
 30
0.0
 10
182.1806636093103
 20
288.2690626067737
 30
0.0
 10
182.1960912426109
 20
288.1053683888943
 30
0.0
 10
182.1567822446178
 20
287.913325303133
 30
0.0
 10
182.1274916926687
 20
287.7702270745559
 30
0.0
  0
LINE
  5
2EE
330
1F
100
AcDbEntity
  8
0
  6
SLD-Сплошная
 62
     7
370
    25
100
AcDbLine
 10
163.6261664153
 20
289.3774418598
 30
0.0
 11
163.6261664153
 21
290.1980388567
 31
0.0
  0
LINE
  5
2EF
330
1F
100
AcDbEntity
  8
0
  6
SLD-Сплошная
 62
     7
370
    25
100
AcDbLine
 10
163.6261664153
 20
288.9520125733
 30
0.0
 11
163.6261664153
 21
289.3774418598
 31
0.0
  0
LINE
  5
2F0
330
1F
100
AcDbEntity
  8
0
  6
SLD-Сплошная
 62
     7
370
    25
100
AcDbLine
 10
163.6261664153
 20
287.0524179292
 30
0.0
 11
163.6261664153
 21
288.9520125733
 31
0.0
  0
LINE
  5
2F1
330
1F
100
AcDbEntity
  8
0
  6
SLD-Сплошная
 62
     7
370
    25
100
AcDbLine
 10
163.6261664153
 20
290.1980388567
 30
0.0
 11
163.6261664153
 21
290.5229178585
 31
0.0
  0
LINE
  5
2F2
330
1F
100
AcDbEntity
  8
0
  6
SLD-Сплошная
 62
     7
370
    25
100
AcDbLine
 10
166.6261664182
 20
210.0228811529
 30
0.0
 11
179.6261664153
 21
210.0228811529
 31
0.0
  0
LINE
  5
2F3
330
1F
100
AcDbEntity
  8
0
  6
SLD-Сплошная
 62
     7
370
    25
100
AcDbLine
 10
179.6261664153
 20
216.8962109147
 30
0.0
 11
179.6261664153
 21
210.0228811529
 31
0.0
  0
LINE
  5
2F4
330
1F
100
AcDbEntity
  8
0
  6
SLD-Сплошная
 62
     7
370
    25
100
AcDbLine
 10
163.6261664153
 20
290.5229178585
 30
0.0
 11
163.6261664153
 21
290.5231135558
 31
0.0
  0
LINE
  5
2F5
330
1F
100
AcDbEntity
  8
0
  6
SLD-Сплошная
 62
     7
370
    25
100
AcDbLine
 10
165.6317907026
 20
295.0104213051
 30
0.0
 11
179.6261664153
 21
295.0104213051
 31
0.0
  0
LINE
  5
2F6
330
1F
100
AcDbEntity
  8
0
  6
SLD-Сплошная
 62
     7
370
    25
100
AcDbLine
 10
165.6261664153
 20
290.5231135558
 30
0.0
 11
165.6261664153
 21
295.0208262366
 31
0.0
  0
LINE
  5
2F7
330
1F
100
AcDbEntity
  8
0
  6
SLD-Сплошная
 62
     7
370
    25
100
AcDbLine
 10
159.6261664153
 20
287.937682275
 30
0.0
 11
159.6261664153
 21
295.0208262366
 31
0.0
  0
LINE
  5
2F8
330
1F
100
AcDbEntity
  8
0
  6
SLD-Сплошная
 62
     7
370
    25
100
AcDbLine
 10
166.6261664153
 20
293.1708262366
 30
0.0
 11
166.6261664153
 21
290.5231135558
 31
0.0
  0
LINE
  5
2F9
330
1F
100
AcDbEntity
  8
0
  6
SLD-Сплошная
 62
     7
370
    25
100
AcDbLine
 10
179.6261664153
 20
290.5231135558
 30
0.0
 11
179.6261664153
 21
293.1708262366
 31
0.0
  0
SPLINE
  5
2FA
330
1F
100
AcDbEntity
  8
0
  6
SLD-Сплошная
 62
     7
370
    25
100
AcDbSpline
210
0.0
220
0.0
230
1.0
 70
     8
 71
     3
 72
     8
 73
     4
 74
     0
 42
0.00000001
 43
0.00000001
 40
0.0
 40
0.0
 40
0.0
 40
0.0
 40
1.0
 40
1.0
 40
1.0
 40
1.0
 10
180.717013403743
 20
279.0677407517454
 30
0.0
 10
180.5564958950405
 20
278.0757647026885
 30
0.0
 10
180.4008921958801
 20
277.0961154408595
 30
0.0
 10
180.2479923247539
 20
276.1117384569461
 30
0.0
  0
LINE
  5
2FB
330
1F
100
AcDbEntity
  8
0
  6
SLD-Сплошная
 62
     7
370
    25
100
AcDbLine
 10
179.6261664153
 20
208.1508762457
 30
0.0
 11
179.6261664153
 21
210.0228811529
 31
0.0
  0
LINE
  5
2FC
330
1F
100
AcDbEntity
  8
0
  6
SLD-Сплошная
 62
     7
370
    25
100
AcDbLine
 10
179.6261664153
 20
295.0104213051
 30
0.0
 11
179.6261664153
 21
293.1708262366
 31
0.0
  0
LINE
  5
2FD
330
1F
100
AcDbEntity
  8
0
  6
SLD-Сплошная
 62
     7
370
    25
100
AcDbLine
 10
180.7170134037
 20
223.9739117214
 30
0.0
 11
180.6294517354
 21
224.5208262519
 31
0.0
  0
SPLINE
  5
2FE
330
1F
100
AcDbEntity
  8
0
  6
SLD-Сплошная
 62
     7
370
    25
100
AcDbSpline
210
0.0
220
0.0
230
1.0
 70
     8
 71
     3
 72
    14
 73
    10
 74
     0
 42
0.00000001
 43
0.00000001
 40
0.0
 40
0.0
 40
0.0
 40
0.0
 40
0.25
 40
0.25
 40
0.5
 40
0.5
 40
0.75
 40
0.75
 40
1.0
 40
1.0
 40
1.0
 40
1.0
 10
182.1407056030687
 20
214.19328789339
 30
0.0
 10
182.1715186480018
 20
213.9864300965235
 30
0.0
 10
182.2036085371606
 20
213.8232202057993
 30
0.0
 10
182.2525732154698
 20
213.7007718443244
 30
0.0
 10
182.2649707188462
 20
213.759312209024
 30
0.0
 10
182.2650039682055
 20
214.0067868695008
 30
0.0
 10
182.2525471297938
 20
214.2254944872188
 30
0.0
 10
182.2036346228365
 20
214.7344854878517
 30
0.0
 10
182.1704799872245
 20
214.9916425252684
 30
0.0
 10
182.1407056030687
 20
215.1757846104661
 30
0.0
  0
SPLINE
  5
2FF
330
1F
100
AcDbEntity
  8
0
  6
SLD-Сплошная
 62
     7
370
    25
100
AcDbSpline
210
0.0
220
0.0
230
1.0
 70
     8
 71
     3
 72
    18
 73
    14
 74
     0
 42
0.00000001
 43
0.00000001
 40
0.0
 40
0.0
 40
0.0
 40
0.0
 40
0.0454272758827994
 40
0.0939958283052901
 40
0.1473711899458925
 40
0.2798732414328846
 40
0.4314113697019911
 40
0.5615627063022169
 40
0.7104923575797032
 40
0.7866822351578585
 40
0.8600648095581869
 40
0.9310008011203941
 40
1.0
 40
1.0
 40
1.0
 40
1.0
 10
182.1695776116578
 20
213.9019586625164
 30
0.0
 10
182.1731125133823
 20
213.8756703846956
 30
0.0
 10
182.1804267537611
 20
213.8212760059776
 30
0.0
 10
182.1883320245504
 20
213.7306255654492
 30
0.0
 10
182.1947883119821
 20
213.5841281529849
 30
0.0
 10
182.1830226484473
 20
213.3694376343375
 30
0.0
 10
182.1109696234405
 20
213.1135360528579
 30
0.0
 10
181.9652401490798
 20
212.8722925447856
 30
0.0
 10
181.7852434527035
 20
212.709355306684
 30
0.0
 10
181.6046055187958
 20
212.6098572664827
 30
0.0
 10
181.4584680967193
 20
212.5570555226167
 30
0.0
 10
181.3084563366447
 20
212.5247322900217
 30
0.0
 10
181.2069140971255
 20
212.5207830075965
 30
0.0
 10
181.1568456821891
 20
212.5188356966833
 30
0.0
  0
LINE
  5
300
330
1F
100
AcDbEntity
  8
0
  6
SLD-Сплошная
 62
     7
370
    25
100
AcDbLine
 10
182.1466476031
 20
215.1339686992
 30
0.0
 11
182.1276013128
 21
215.271014812
 31
0.0
  0
LINE
  5
301
330
1F
100
AcDbEntity
  8
0
  6
SLD-Сплошная
 62
     7
370
    25
100
AcDbLine
 10
268.6435464804
 20
61.6173037077
 30
0.0
 11
258.6435464804
 21
61.6173037077
 31
0.0
  0
LINE
  5
302
330
1F
100
AcDbEntity
  8
0
  6
SLD-Сплошная
 62
     7
370
    25
100
AcDbLine
 10
258.6435464804
 20
16.3173037077
 30
0.0
 11
268.6435464804
 21
16.3173037077
 31
0.0
  0
LINE
  5
303
330
1F
100
AcDbEntity
  8
0
  6
SLD-Сплошная
 62
     7
370
    25
100
AcDbLine
 10
268.6435464804
 20
19.5173037077
 30
0.0
 11
281.6435464804
 21
19.5173037077
 31
0.0
  0
LINE
  5
304
330
1F
100
AcDbEntity
  8
0
  6
SLD-Сплошная
 62
     7
370
    25
100
AcDbLine
 10
281.6435464804
 20
58.4173037077
 30
0.0
 11
268.6435464804
 21
58.4173037077
 31
0.0
  0
LINE
  5
305
330
1F
100
AcDbEntity
  8
0
  6
SLD-Сплошная
 62
     7
370
    25
100
AcDbLine
 10
134.5261664153
 20
35.467303723
 30
0.0
 11
135.4261664158
 21
35.467303723
 31
0.0
  0
LINE
  5
306
330
1F
100
AcDbEntity
  8
0
  6
SLD-Сплошная
 62
     7
370
    25
100
AcDbLine
 10
135.4261664158
 20
42.467303723
 30
0.0
 11
134.5261664153
 21
42.467303723
 31
0.0
  0
LINE
  5
307
330
1F
100
AcDbEntity
  8
0
  6
SLD-Сплошная
 62
     7
370
    25
100
AcDbLine
 10
159.6261664153
 20
-4.532696277
 30
0.0
 11
165.6261664153
 21
-4.532696277
 31
0.0
  0
SPLINE
  5
308
330
1F
100
AcDbEntity
  8
0
  6
SLD-Сплошная
 62
     7
370
    25
100
AcDbSpline
210
0.0
220
0.0
230
1.0
 70
     8
 71
     3
 72
    16
 73
    12
 74
     0
 42
0.00000001
 43
0.00000001
 40
0.0
 40
0.0
 40
0.0
 40
0.0
 40
0.1210402209223966
 40
0.2441053740436621
 40
0.3377966372588683
 40
0.4290011400605504
 40
0.5637617445697507
 40
0.652142326064141
 40
0.754786505116006
 40
0.871100379132399
 40
1.0
 40
1.0
 40
1.0
 40
1.0
 10
182.1870677551825
 20
75.75728523562036
 30
0.0
 10
182.2005390512795
 20
75.88019942811542
 30
0.0
 10
182.2277070103889
 20
76.12808409575425
 30
0.0
 10
182.2493973404478
 20
76.45990881841904
 30
0.0
 10
182.2648074523017
 20
76.6956194618235
 30
0.0
 10
182.2464662643196
 20
76.9912044503977
 30
0.0
 10
182.1543953100279
 20
77.29252403758105
 30
0.0
 10
181.9921278057373
 20
77.5608203344369
 30
0.0
 10
181.7879933253533
 20
77.76801534107238
 30
0.0
 10
181.5045827376696
 20
77.93415219351346
 30
0.0
 10
181.2755046977303
 20
77.95767567038637
 30
0.0
 10
181.1550868858507
 20
77.97004108792522
 30
0.0
  0
LINE
  5
309
330
1F
100
AcDbEntity
  8
0
  6
SLD-Сплошная
 62
     7
370
    25
100
AcDbLine
 10
180.7120414907
 20
66.4570544
 30
0.0
 11
182.13573369
 21
75.2551815109
 31
0.0
  0
LINE
  5
30A
330
1F
100
AcDbEntity
  8
0
  6
SLD-Сплошная
 62
     7
370
    25
100
AcDbLine
 10
181.1568456855
 20
77.9696046812
 30
0.0
 11
163.6261664153
 21
77.9696046812
 31
0.0
  0
LINE
  5
30B
330
1F
100
AcDbEntity
  8
0
  6
SLD-Сплошная
 62
     7
370
    25
100
AcDbLine
 10
165.6261664153
 20
82.467303723
 30
0.0
 11
159.6261664153
 21
82.467303723
 31
0.0
  0
LINE
  5
30C
330
1F
100
AcDbEntity
  8
0
  6
SLD-Сплошная
 62
     7
370
    25
100
AcDbLine
 10
166.6261664182
 20
80.617303723
 30
0.0
 11
165.6261664153
 21
82.467303723
 31
0.0
  0
LINE
  5
30D
330
1F
100
AcDbEntity
  8
0
  6
SLD-Сплошная
 62
     7
370
    25
100
AcDbLine
 10
179.6261664153
 20
80.617303723
 30
0.0
 11
166.6261664182
 21
80.617303723
 31
0.0
  0
LINE
  5
30E
330
1F
100
AcDbEntity
  8
0
  6
SLD-Сплошная
 62
     7
370
    25
100
AcDbLine
 10
180.2320072334
 20
63.4571800996
 30
0.0
 11
180.6876571493
 21
66.3708640698
 31
0.0
  0
SPLINE
  5
30F
330
1F
100
AcDbEntity
  8
0
  6
SLD-Сплошная
 62
     7
370
    25
100
AcDbSpline
210
0.0
220
0.0
230
1.0
 70
     8
 71
     3
 72
    13
 73
     9
 74
     0
 42
0.00000001
 43
0.00000001
 40
0.0
 40
0.0
 40
0.0
 40
0.0
 40
0.1466097299476854
 40
0.2785751659044005
 40
0.5304471992301998
 40
0.7772255260789098
 40
0.8932671960551394
 40
1.0
 40
1.0
 40
1.0
 40
1.0
 10
179.6261664153079
 20
62.65286919562937
 30
0.0
 10
179.6706122778596
 20
62.6767682109689
 30
0.0
 10
179.7550644730756
 20
62.72217905897701
 30
0.0
 10
179.9099260829597
 20
62.84215183195746
 30
0.0
 10
180.0569815363016
 20
63.00315322195083
 30
0.0
 10
180.1508981745374
 20
63.18658006528604
 30
0.0
 10
180.2058016246567
 20
63.34735751565826
 30
0.0
 10
180.2244764622023
 20
63.42504172617264
 30
0.0
 10
180.233423707097
 20
63.46226077315098
 30
0.0
  0
LINE
  5
310
330
1F
100
AcDbEntity
  8
0
  6
SLD-Сплошная
 62
     7
370
    25
100
AcDbLine
 10
165.6261664153
 20
-4.532696277
 30
0.0
 11
165.6317907026
 21
-4.5222913455
 31
0.0
  0
LINE
  5
311
330
1F
100
AcDbEntity
  8
0
  6
SLD-Сплошная
 62
     7
370
    25
100
AcDbLine
 10
182.133801515
 20
2.6913663824
 30
0.0
 11
180.7120414907
 21
11.477553046
 31
0.0
  0
SPLINE
  5
312
330
1F
100
AcDbEntity
  8
0
  6
SLD-Сплошная
 62
     7
370
    25
100
AcDbSpline
210
0.0
220
0.0
230
1.0
 70
     8
 71
     3
 72
    14
 73
    10
 74
     0
 42
0.00000001
 43
0.00000001
 40
0.0
 40
0.0
 40
0.0
 40
0.0
 40
0.0874187658032429
 40
0.2397409680676617
 40
0.3715545323533499
 40
0.5787889875796438
 40
0.7514209747764844
 40
0.9791947658232738
 40
1.0
 40
1.0
 40
1.0
 40
1.0
 10
181.5927074619583
 20
0.0651642043065226
 30
0.0
 10
181.6361608389572
 20
0.082382050151722
 30
0.0
 10
181.7553292414372
 20
0.1296010081528048
 30
0.0
 10
181.9076482233802
 20
0.2563552001037042
 30
0.0
 10
182.0738672496429
 20
0.4460088348489585
 30
0.0
 10
182.191444442931
 20
0.6839497514820464
 30
0.0
 10
182.2328229796928
 20
0.9142348120201662
 30
0.0
 10
182.2471987694709
 20
1.072446270870782
 30
0.0
 10
182.2438042414544
 20
1.193414584502686
 30
0.0
 10
182.2435201307969
 20
1.203539228328977
 30
0.0
  0
LINE
  5
313
330
1F
100
AcDbEntity
  8
0
  6
SLD-Сплошная
 62
     7
370
    25
100
AcDbLine
 10
179.6261664153
 20
-0.0349835963
 30
0.0
 11
181.1568656792
 21
-0.0349835963
 31
0.0
  0
SPLINE
  5
314
330
1F
100
AcDbEntity
  8
0
  6
SLD-Сплошная
 62
     7
370
    25
100
AcDbSpline
210
0.0
220
0.0
230
1.0
 70
     8
 71
     3
 72
     8
 73
     4
 74
     0
 42
0.00000001
 43
0.00000001
 40
0.0
 40
0.0
 40
0.0
 40
0.0
 40
0.0003026980680076
 40
0.0003026980680076
 40
0.0003026980680076
 40
0.0003026980680076
 10
207.8636846349726
 20
35.91730369914726
 30
0.0
 10
207.8473981960999
 20
35.81698406978158
 30
0.0
 10
207.8303163599415
 20
35.71698461834034
 30
0.0
 10
207.8124408553541
 20
35.61730370765377
 30
0.0
  0
SPLINE
  5
315
330
1F
100
AcDbEntity
  8
0
  6
SLD-Сплошная
 62
     7
370
    25
100
AcDbSpline
210
0.0
220
0.0
230
1.0
 70
     8
 71
     3
 72
     8
 73
     4
 74
     0
 42
0.00000001
 43
0.00000001
 40
0.0
 40
0.0
 40
0.0
 40
0.0
 40
1.0
 40
1.0
 40
1.0
 40
1.0
 10
207.8636846349726
 20
35.91730369914726
 30
0.0
 10
207.9280970060302
 20
36.31407811752825
 30
0.0
 10
207.9798105489219
 20
36.71413952236915
 30
0.0
 10
208.0188402649249
 20
37.11730372994036
 30
0.0
  0
SPLINE
  5
316
330
1F
100
AcDbEntity
  8
0
  6
SLD-Сплошная
 62
     7
370
    25
100
AcDbSpline
210
0.0
220
0.0
230
1.0
 70
     8
 71
     3
 72
    16
 73
    12
 74
     0
 42
0.00000001
 43
0.00000001
 40
0.0
 40
0.0
 40
0.0
 40
0.0
 40
0.1114331212018698
 40
0.2226249595804246
 40
0.3336441323645202
 40
0.4445595772551142
 40
0.5554404242078379
 40
0.6663558683632219
 40
0.7773750413932317
 40
0.8885668795285502
 40
1.0
 40
1.0
 40
1.0
 40
1.0
 10
208.0188402573014
 20
40.81730370508336
 30
0.0
 10
208.0312475574891
 20
40.68033330157144
 30
0.0
 10
208.0560352927062
 20
40.40668907248882
 30
0.0
 10
208.082060973265
 20
39.99538750755116
 30
0.0
 10
208.099863856964
 20
39.5841663076221
 30
0.0
 10
208.1086645234137
 20
39.17292219858378
 30
0.0
 10
208.1086645234253
 20
38.76168523683894
 30
0.0
 10
208.099863856795
 20
38.35044112841086
 30
0.0
 10
208.0820609731718
 20
37.9392199293853
 30
0.0
 10
208.056035292577
 20
37.52791836534954
 30
0.0
 10
208.0312475572515
 20
37.25427413748969
 30
0.0
 10
208.0188402570367
 20
37.11730373488859
 30
0.0
  0
SPLINE
  5
317
330
1F
100
AcDbEntity
  8
0
  6
SLD-Сплошная
 62
     7
370
    25
100
AcDbSpline
210
0.0
220
0.0
230
1.0
 70
     8
 71
     3
 72
     8
 73
     4
 74
     0
 42
0.00000001
 43
0.00000001
 40
0.0
 40
0.0
 40
0.0
 40
0.0
 40
1.0
 40
1.0
 40
1.0
 40
1.0
 10
208.0188402664384
 20
40.81730369984486
 30
0.0
 10
207.9798105489219
 20
41.22046789293835
 30
0.0
 10
207.9280970060302
 20
41.62052929777926
 30
0.0
 10
207.8636846318309
 20
42.01730373299106
 30
0.0
  0
SPLINE
  5
318
330
1F
100
AcDbEntity
  8
0
  6
SLD-Сплошная
 62
     7
370
    25
100
AcDbSpline
210
0.0
220
0.0
230
1.0
 70
     8
 71
     3
 72
     8
 73
     4
 74
     0
 42
0.00000001
 43
0.00000001
 40
0.0
 40
0.0
 40
0.0
 40
0.0
 40
0.0003026980507418
 40
0.0003026980507418
 40
0.0003026980507418
 40
0.0003026980507418
 10
207.8636846318309
 20
42.01730373299106
 30
0.0
 10
207.8473981941561
 20
42.11762335690499
 30
0.0
 10
207.8303163589243
 20
42.21762280263908
 30
0.0
 10
207.8124408553541
 20
42.31730370765376
 30
0.0
  0
LINE
  5
319
330
1F
100
AcDbEntity
  8
0
  6
SLD-Сплошная
 62
     7
370
    25
100
AcDbLine
 10
219.2261664148
 20
42.3173037072
 30
0.0
 11
219.2261664148
 21
35.6173037077
 31
0.0
  0
LINE
  5
31A
330
1F
100
AcDbEntity
  8
0
  6
SLD-Сплошная
 62
     7
370
    25
100
AcDbLine
 10
207.8124408554
 20
35.6173037077
 30
0.0
 11
219.2261664148
 21
35.6173037077
 31
0.0
  0
LINE
  5
31B
330
1F
100
AcDbEntity
  8
0
  6
SLD-Сплошная
 62
     7
370
    25
100
AcDbLine
 10
207.8124408554
 20
42.3173037077
 30
0.0
 11
219.2261664148
 21
42.3173037072
 31
0.0
  0
LINE
  5
31C
330
1F
100
AcDbEntity
  8
0
  6
SLD-Сплошная
 62
     7
370
    25
100
AcDbLine
 10
219.2261664148
 20
35.6173037077
 30
0.0
 11
221.9261664154
 21
35.6173037077
 31
0.0
  0
LINE
  5
31D
330
1F
100
AcDbEntity
  8
0
  6
SLD-Сплошная
 62
     7
370
    25
100
AcDbLine
 10
221.9261664154
 20
35.6173037077
 30
0.0
 11
221.9261664154
 21
42.3173037077
 31
0.0
  0
LINE
  5
31E
330
1F
100
AcDbEntity
  8
0
  6
SLD-Сплошная
 62
     7
370
    25
100
AcDbLine
 10
221.9261664154
 20
42.3173037077
 30
0.0
 11
219.2261664148
 21
42.3173037072
 31
0.0
  0
LINE
  5
31F
330
1F
100
AcDbEntity
  8
0
  6
SLD-Сплошная
 62
     7
370
    25
100
AcDbLine
 10
135.4261664158
 20
10.9173037077
 30
0.0
 11
159.6261664156
 21
10.9173037077
 31
0.0
  0
LINE
  5
320
330
1F
100
AcDbEntity
  8
0
  6
SLD-Сплошная
 62
     7
370
    25
100
AcDbLine
 10
135.4261664158
 20
10.9173037077
 30
0.0
 11
135.4261664158
 21
67.0173037077
 31
0.0
  0
LINE
  5
321
330
1F
100
AcDbEntity
  8
0
  6
SLD-Сплошная
 62
     7
370
    25
100
AcDbLine
 10
135.4261664158
 20
67.0173037077
 30
0.0
 11
159.6261664156
 21
67.0173037077
 31
0.0
  0
ARC
  5
322
330
1F
100
AcDbEntity
  8
0
  6
SLD-Сплошная
 62
     7
370
    25
100
AcDbCircle
 10
201.5850590214
 20
61.9673036902
 30
0.0
 40
49.9999999828443
100
AcDbArc
 50
270.0000000001
 51
280.3789144098
  0
ARC
  5
323
330
1F
100
AcDbEntity
  8
0
  6
SLD-Сплошная
 62
     7
370
    25
100
AcDbCircle
 10
201.5850590214
 20
15.9673037251
 30
0.0
 40
49.99999998284434
100
AcDbArc
 50
79.6210855933
 51
89.9999999999
  0
LINE
  5
324
330
1F
100
AcDbEntity
  8
0
  6
SLD-Сплошная
 62
     7
370
    25
100
AcDbLine
 10
179.6261664151
 20
11.9673037077
 30
0.0
 11
201.5850590214
 21
11.9673037074
 31
0.0
  0
LINE
  5
325
330
1F
100
AcDbEntity
  8
0
  6
SLD-Сплошная
 62
     7
370
    25
100
AcDbLine
 10
180.6294517358
 20
65.9673037077
 30
0.0
 11
201.5850590214
 21
65.9673037079
 31
0.0
  0
LINE
  5
326
330
1F
100
AcDbEntity
  8
0
  6
SLD-Сплошная
 62
     7
370
    25
100
AcDbLine
 10
243.5262196862
 20
59.1175945516
 30
0.0
 11
210.5929705827
 21
65.1494864261
 31
0.0
  0
SPLINE
  5
327
330
1F
100
AcDbEntity
  8
0
  6
SLD-Сплошная
 62
     7
370
    25
100
AcDbSpline
210
0.0
220
0.0
230
1.0
 70
     8
 71
     3
 72
     9
 73
     5
 74
     0
 42
0.00000001
 43
0.00000001
 40
0.0
 40
0.0
 40
0.0
 40
0.0
 40
0.5895878654237665
 40
1.0
 40
1.0
 40
1.0
 40
1.0
 10
243.5262196859449
 20
18.81701286594385
 30
0.0
 10
243.526219685356
 20
18.87144305439211
 30
0.0
 10
243.5262196843574
 20
18.96376209899989
 30
0.0
 10
243.5262196845157
 20
19.70016256638137
 30
0.0
 10
243.5262196845806
 20
20.00239025410234
 30
0.0
  0
SPLINE
  5
328
330
1F
100
AcDbEntity
  8
0
  6
SLD-Сплошная
 62
     7
370
    25
100
AcDbSpline
210
0.0
220
0.0
230
1.0
 70
     8
 71
     3
 72
     9
 73
     5
 74
     0
 42
0.00000001
 43
0.00000001
 40
0.0
 40
0.0
 40
0.0
 40
0.0
 40
0.4753806687275662
 40
0.9999999999999999
 40
0.9999999999999999
 40
0.9999999999999999
 40
0.9999999999999999
 10
243.5262196845805
 20
57.69136658540285
 30
0.0
 10
243.5262196844825
 20
58.09224157498422
 30
0.0
 10
243.5262196842765
 20
58.93551311703995
 30
0.0
 10
243.5262196853707
 20
59.05494059045896
 30
0.0
 10
243.5262196859447
 20
59.1175945516996
 30
0.0
  0
LINE
  5
329
330
1F
100
AcDbEntity
  8
0
  6
SLD-Сплошная
 62
     7
370
    25
100
AcDbLine
 10
243.5262196859
 20
18.8170128659
 30
0.0
 11
210.5929705852
 21
12.7851209919
 31
0.0
  0
SPLINE
  5
32A
330
1F
100
AcDbEntity
  8
0
  6
SLD-Сплошная
 62
     7
370
    25
100
AcDbSpline
210
0.0
220
0.0
230
1.0
 70
    24
 71
     3
 72
    19
 73
    15
 74
     0
 42
0.00000001
 43
0.00000001
 40
0.0
 40
0.0
 40
0.0
 40
0.0
 40
0.0836323688012255
 40
0.1671018569068922
 40
0.2504408112565983
 40
0.3336817309640659
 40
0.4168572300581516
 40
0.4999999995544693
 40
0.5831427690756235
 40
0.6663182682441899
 40
0.7495591880756948
 40
0.8328981425988481
 40
0.9163676309271702
 40
0.9999999999999999
 40
0.9999999999999999
 40
0.9999999999999999
 40
0.9999999999999999
 10
221.926166415371
 20
36.1173038326159
 30
0.0
 10
221.9261664153711
 20
36.27556912144998
 30
0.0
 10
221.926166415371
 20
36.59179146486986
 30
0.0
 10
221.926166415371
 20
37.06694515839435
 30
0.0
 10
221.926166415371
 20
37.54202065932989
 30
0.0
 10
221.926166415371
 20
38.01711794364472
 30
0.0
 10
221.926166415371
 20
38.49221004309597
 30
0.0
 10
221.926166415371
 20
38.96730376799339
 30
0.0
 10
221.926166415371
 20
39.44239749301248
 30
0.0
 10
221.926166415371
 20
39.91748959282869
 30
0.0
 10
221.926166415371
 20
40.39258687775197
 30
0.0
 10
221.926166415371
 20
40.86766237953874
 30
0.0
 10
221.926166415371
 20
41.34281607415997
 30
0.0
 10
221.926166415371
 20
41.6590384183756
 30
0.0
 10
221.926166415371
 20
41.8173037076538
 30
0.0
  0
ARC
  5
32B
330
1F
100
AcDbEntity
  8
0
  6
SLD-Сплошная
 62
     7
370
    25
100
AcDbCircle
 10
245.3323255264
 20
16.3664023771
 30
0.0
 40
1.749999999204128
100
AcDbArc
 50
268.1610105993
 51
307.6832217806
  0
LINE
  5
32C
330
1F
100
AcDbEntity
  8
0
  6
SLD-Сплошная
 62
     7
370
    25
100
AcDbLine
 10
245.2761664145
 20
14.6173037079
 30
0.0
 11
245.2761664145
 21
63.3173037074
 31
0.0
  0
ARC
  5
32D
330
1F
100
AcDbEntity
  8
0
  6
SLD-Сплошная
 62
     7
370
    25
100
AcDbCircle
 10
245.3323255264
 20
61.5682050354
 30
0.0
 40
1.750000001783568
100
AcDbArc
 50
52.3167782778
 51
91.8389893145
  0
ARC
  5
32E
330
1F
100
AcDbEntity
  8
0
  6
SLD-Сплошная
 62
     7
370
    25
100
AcDbCircle
 10
245.2761664143
 20
16.3673037073
 30
0.0
 40
1.749999999816698
100
AcDbArc
 50
179.9999998826
 51
270.0000006766
  0
SPLINE
  5
32F
330
1F
100
AcDbEntity
  8
0
  6
SLD-Сплошная
 62
     7
370
    25
100
AcDbSpline
210
0.0
220
0.0
230
1.0
 70
     8
 71
     3
 72
    60
 73
    56
 74
     0
 42
0.00000001
 43
0.00000001
 40
0.0
 40
0.0
 40
0.0
 40
0.0
 40
0.0058210228145407
 40
0.0116808649178559
 40
0.0175794584499417
 40
0.0235167341351794
 40
0.0294926212837711
 40
0.0355070477932103
 40
0.0402360992300119
 40
0.0448236733427519
 40
0.0536984737460817
 40
0.0714704456825801
 40
0.1427522354006339
 40
0.159610004102444
 40
0.1782559635210406
 40
0.1959855686591954
 40
0.2142896551642313
 40
0.2499315851478086
 40
0.285428010288986
 40
0.3153801309590786
 40
0.3337825723991624
 40
0.3485335671105931
 40
0.3570004865881495
 40
0.3750926247536136
 40
0.3981610717539158
 40
0.4282980458067459
 40
0.4703285216822565
 40
0.4999433039970525
 40
0.5175214824411893
 40
0.5354459057015045
 40
0.5447624857770705
 40
0.5536373575728544
 40
0.5713643909642698
 40
0.6249294584406002
 40
0.650109712783771
 40
0.6639473838353384
 40
0.678264908108599
 40
0.7054850200668448
 40
0.7318418619578974
 40
0.7572386176982387
 40
0.7855423813831794
 40
0.8031432056206863
 40
0.8394842958585652
 40
0.870225513126947
 40
0.8927311335354564
 40
0.9033333688670235
 40
0.9157829787984207
 40
0.9271190616455892
 40
0.9364025502680811
 40
0.9463698737701364
 40
0.9631346718908317
 40
0.9710487834791525
 40
0.9778960385583646
 40
0.9889603715725862
 40
1.0
 40
1.0
 40
1.0
 40
1.0
 10
243.5261664156809
 20
61.5673037044055
 30
0.0
 10
243.5261664146759
 20
61.56655165686624
 30
0.0
 10
243.5261664126592
 20
61.56504254652639
 30
0.0
 10
243.5261664584002
 20
61.55278099549174
 30
0.0
 10
243.5261667341686
 20
61.5330316236839
 30
0.0
 10
243.5261675554384
 20
61.5049216721296
 30
0.0
 10
243.5261692919089
 20
61.46852979171948
 30
0.0
 10
243.5261724395647
 20
61.42686407917336
 30
0.0
 10
243.5261764859399
 20
61.38261718545068
 30
0.0
 10
243.5261762412025
 20
61.32540085888305
 30
0.0
 10
243.526192800251
 20
61.20739271558966
 30
0.0
 10
243.5262709897811
 20
60.7455141088473
 30
0.0
 10
243.5263272120094
 20
59.90651431774773
 30
0.0
 10
243.5262698484163
 20
58.75519886066699
 30
0.0
 10
243.526239629693
 20
58.11980568595099
 30
0.0
 10
243.5261879014427
 20
57.40790377389454
 30
0.0
 10
243.526166674053
 20
56.39363561924159
 30
0.0
 10
243.5261674590238
 20
54.98510143994956
 30
0.0
 10
243.5261624319733
 20
53.19560571292791
 30
0.0
 10
243.5262052556476
 20
51.58254069711726
 30
0.0
 10
243.5262401401662
 20
50.30843892555208
 30
0.0
 10
243.5262792759767
 20
49.44218037847743
 30
0.0
 10
243.526303632041
 20
48.5670472056844
 30
0.0
 10
243.5263088875292
 20
47.49519883733826
 30
0.0
 10
243.5262883325458
 20
45.91434181798959
 30
0.0
 10
243.5262241068963
 20
43.74415956177048
 30
0.0
 10
243.526161226003
 20
41.36226070148011
 30
0.0
 10
243.5261676611773
 20
39.2519029087904
 30
0.0
 10
243.5261649510839
 20
37.71205224816634
 30
0.0
 10
243.5261726513559
 20
36.65575984921188
 30
0.0
 10
243.5261751985877
 20
35.80860597845641
 30
0.0
 10
243.5261921635148
 20
34.96998915873203
 30
0.0
 10
243.5262541853688
 20
33.11209424074992
 30
0.0
 10
243.5263300092691
 20
30.92827161198468
 30
0.0
 10
243.5262870302833
 20
28.93770776383343
 30
0.0
 10
243.5262691274507
 20
27.82602011237119
 30
0.0
 10
243.5262230544517
 20
26.69888516106469
 30
0.0
 10
243.5261762982792
 20
25.37132407041724
 30
0.0
 10
243.5261641409588
 20
23.92049829924551
 30
0.0
 10
243.5261670656085
 20
22.55862876129168
 30
0.0
 10
243.5261669800591
 20
21.45049389953383
 30
0.0
 10
243.5261996192918
 20
20.28571056788241
 30
0.0
 10
243.526259217441
 20
19.22300129566626
 30
0.0
 10
243.5263219167805
 20
18.29359839173811
 30
0.0
 10
243.526299076699
 20
17.74244284007152
 30
0.0
 10
243.5262797936685
 20
17.40183004901935
 30
0.0
 10
243.5262507979586
 20
17.17134492950622
 30
0.0
 10
243.5262311000657
 20
16.97837762526641
 30
0.0
 10
243.5262072060632
 20
16.82152747039728
 30
0.0
 10
243.5262105300608
 20
16.66604714552284
 30
0.0
 10
243.5261869455462
 20
16.54678307624619
 30
0.0
 10
243.5261709215099
 20
16.46508211191701
 30
0.0
 10
243.5261671357086
 20
16.41406381105103
 30
0.0
 10
243.5261663629722
 20
16.37549511526671
 30
0.0
 10
243.5261663981152
 20
16.37003214378585
 30
0.0
 10
243.526166415667
 20
16.36730371090211
 30
0.0
  0
ARC
  5
330
330
1F
100
AcDbEntity
  8
0
  6
SLD-Сплошная
 62
     7
370
    25
100
AcDbCircle
 10
245.276166415
 20
61.5673037081
 30
0.0
 40
1.749999999316302
100
AcDbArc
 50
89.9999992614
 51
180.0000001206
  0
LINE
  5
331
330
1F
100
AcDbEntity
  8
0
  6
SLD-Сплошная
 62
     7
370
    25
100
AcDbLine
 10
249.4268226949
 20
60.6181533499
 30
0.0
 11
246.4027486074
 21
62.9540091848
 31
0.0
  0
SPLINE
  5
332
330
1F
100
AcDbEntity
  8
0
  6
SLD-Сплошная
 62
     7
370
    25
100
AcDbSpline
210
0.0
220
0.0
230
1.0
 70
    24
 71
     3
 72
    49
 73
    45
 74
     0
 42
0.00000001
 43
0.00000001
 40
0.0
 40
0.0
 40
0.0
 40
0.0
 40
0.0069603753792684
 40
0.0139096275671052
 40
0.0208510572999222
 40
0.0277879764804209
 40
0.0347237034728537
 40
0.0416615583521377
 40
0.0486048581407184
 40
0.0555569120672825
 40
0.0625210168810588
 40
0.0937601486940634
 40
0.1250182043937513
 40
0.1562573362062668
 40
0.1875153919064317
 40
0.2187545237188843
 40
0.2500125794191286
 40
0.2812517112326241
 40
0.3125097669318204
 40
0.3437488987451018
 40
0.3750069544445046
 40
0.4062460862571136
 40
0.4375041419571922
 40
0.468743273770006
 40
0.5000013294698852
 40
0.5312404612833279
 40
0.5624985169825761
 40
0.5937376487966896
 40
0.6249957044952694
 40
0.6562348363090683
 40
0.6874928920079513
 40
0.7187320238206568
 40
0.7499900795206371
 40
0.781229211333256
 40
0.8124872670333286
 40
0.8437263988464636
 40
0.8749844545460204
 40
0.9062235867203835
 40
0.9374816420621956
 40
0.950001646658644
 40
0.9624941317372602
 40
0.9749784403236399
 40
0.9874739534150093
 40
1.0
 40
1.0
 40
1.0
 40
1.0
 10
249.4261664153709
 20
60.61730370904041
 30
0.0
 10
249.4261664153709
 20
60.61631718353418
 30
0.0
 10
249.4261664153709
 20
60.61434570906199
 30
0.0
 10
249.4261664153709
 20
60.59836235714318
 30
0.0
 10
249.4261664153709
 20
60.57283684736446
 30
0.0
 10
249.4261664153709
 20
60.53683835660639
 30
0.0
 10
249.4261664153709
 20
60.49061606847994
 30
0.0
 10
249.4261664153709
 20
60.43410280540643
 30
0.0
 10
249.4261664153709
 20
60.3673184881192
 30
0.0
 10
249.4261664153709
 20
60.29025097011829
 30
0.0
 10
249.4261664153709
 20
60.10154965759227
 30
0.0
 10
249.4261664153709
 20
59.71888509707446
 30
0.0
 10
249.4261664153709
 20
59.00139265119463
 30
0.0
 10
249.4261664153709
 20
58.09213878695859
 30
0.0
 10
249.4261664153709
 20
56.99759164479564
 30
0.0
 10
249.4261664153709
 20
55.73041140047
 30
0.0
 10
249.426166415371
 20
54.30090331665054
 30
0.0
 10
249.426166415371
 20
52.72448543497944
 30
0.0
 10
249.426166415371
 20
51.01495382361372
 30
0.0
 10
249.426166415371
 20
49.18987856502644
 30
0.0
 10
249.426166415371
 20
47.26601992663204
 30
0.0
 10
249.426166415371
 20
45.26242386709202
 30
0.0
 10
249.426166415371
 20
43.19817102165273
 30
0.0
 10
249.426166415371
 20
41.09305123102421
 30
0.0
 10
249.426166415371
 20
38.96773225855884
 30
0.0
 10
249.426166415371
 20
36.84198730963096
 30
0.0
 10
249.426166415371
 20
34.73727702642022
 30
0.0
 10
249.426166415371
 20
32.67259810545428
 30
0.0
 10
249.426166415371
 20
30.66937934734385
 30
0.0
 10
249.4261664153711
 20
28.74511090751523
 30
0.0
 10
249.4261664153711
 20
26.9203662475256
 30
0.0
 10
249.4261664153711
 20
25.2104568474709
 30
0.0
 10
249.4261664153711
 20
23.63431019334068
 30
0.0
 10
249.4261664153711
 20
22.20447071551227
 30
0.0
 10
249.4261664153711
 20
20.9374924128298
 30
0.0
 10
249.4261664153711
 20
19.8426711089487
 30
0.0
 10
249.4261664153711
 20
18.93354921625064
 30
0.0
 10
249.4261664153711
 20
18.21582394692958
 30
0.0
 10
249.4261664153711
 20
17.80259279025758
 30
0.0
 10
249.4261664153711
 20
17.57816752016198
 30
0.0
 10
249.4261664153711
 20
17.4614371330734
 30
0.0
 10
249.4261664153711
 20
17.37867652320118
 30
0.0
 10
249.4261664153711
 20
17.32687282271434
 30
0.0
 10
249.4261664153711
 20
17.32049600302351
 30
0.0
 10
249.4261664153711
 20
17.31730370240179
 30
0.0
  0
LINE
  5
333
330
1F
100
AcDbEntity
  8
0
  6
SLD-Сплошная
 62
     7
370
    25
100
AcDbLine
 10
249.4268226954
 20
17.3164540621
 30
0.0
 11
246.4027486094
 21
14.9805982285
 31
0.0
  0
LINE
  5
334
330
1F
100
AcDbEntity
  8
0
  6
SLD-Сплошная
 62
     7
370
    25
100
AcDbLine
 10
268.6435464804
 20
51.4308577767
 30
0.0
 11
261.6435464804
 21
51.4308577767
 31
0.0
  0
LINE
  5
335
330
1F
100
AcDbEntity
  8
0
  6
SLD-Сплошная
 62
     7
370
    25
100
AcDbLine
 10
268.6435464804
 20
49.1142244228
 30
0.0
 11
268.6435464804
 21
51.4308577767
 31
0.0
  0
LINE
  5
336
330
1F
100
AcDbEntity
  8
0
  6
SLD-Сплошная
 62
     7
370
    25
100
AcDbLine
 10
261.6435464804
 20
49.1142244228
 30
0.0
 11
268.6435464804
 21
49.1142244228
 31
0.0
  0
LINE
  5
337
330
1F
100
AcDbEntity
  8
0
  6
SLD-Сплошная
 62
     7
370
    25
100
AcDbLine
 10
261.6435464804
 20
28.8203829925
 30
0.0
 11
261.6435464804
 21
49.1142244228
 31
0.0
  0
LINE
  5
338
330
1F
100
AcDbEntity
  8
0
  6
SLD-Сплошная
 62
     7
370
    25
100
AcDbLine
 10
268.6435464804
 20
28.8203829925
 30
0.0
 11
261.6435464804
 21
28.8203829925
 31
0.0
  0
LINE
  5
339
330
1F
100
AcDbEntity
  8
0
  6
SLD-Сплошная
 62
     7
370
    25
100
AcDbLine
 10
268.6435464804
 20
26.5037496386
 30
0.0
 11
268.6435464804
 21
28.8203829925
 31
0.0
  0
LINE
  5
33A
330
1F
100
AcDbEntity
  8
0
  6
SLD-Сплошная
 62
     7
370
    25
100
AcDbLine
 10
261.6435464804
 20
26.5037496386
 30
0.0
 11
268.6435464804
 21
26.5037496386
 31
0.0
  0
LINE
  5
33B
330
1F
100
AcDbEntity
  8
0
  6
SLD-Сплошная
 62
     7
370
    25
100
AcDbLine
 10
261.6435464804
 20
19.3518283119
 30
0.0
 11
261.6435464804
 21
26.5037496386
 31
0.0
  0
LINE
  5
33C
330
1F
100
AcDbEntity
  8
0
  6
SLD-Сплошная
 62
     7
370
    25
100
AcDbLine
 10
258.6435464804
 20
61.6173037077
 30
0.0
 11
258.6435464804
 21
19.3518283119
 31
0.0
  0
LINE
  5
33D
330
1F
100
AcDbEntity
  8
0
  6
SLD-Сплошная
 62
     7
370
    25
100
AcDbLine
 10
268.6435464804
 20
61.5777784919
 30
0.0
 11
268.6435464804
 21
61.6173037077
 31
0.0
  0
LINE
  5
33E
330
1F
100
AcDbEntity
  8
0
  6
SLD-Сплошная
 62
     7
370
    25
100
AcDbLine
 10
261.6435464804
 20
61.5777784919
 30
0.0
 11
268.6435464804
 21
61.5777784919
 31
0.0
  0
LINE
  5
33F
330
1F
100
AcDbEntity
  8
0
  6
SLD-Сплошная
 62
     7
370
    25
100
AcDbLine
 10
261.6435464804
 20
51.4308577767
 30
0.0
 11
261.6435464804
 21
61.5777784919
 31
0.0
  0
LINE
  5
340
330
1F
100
AcDbEntity
  8
0
  6
SLD-Сплошная
 62
     7
370
    25
100
AcDbLine
 10
281.6435464804
 20
39.9673037077
 30
0.0
 11
281.6435464804
 21
37.9673037077
 31
0.0
  0
LINE
  5
341
330
1F
100
AcDbEntity
  8
0
  6
SLD-Сплошная
 62
     7
370
    25
100
AcDbLine
 10
268.6435464804
 20
37.9673037077
 30
0.0
 11
281.6435464804
 21
37.9673037077
 31
0.0
  0
LINE
  5
342
330
1F
100
AcDbEntity
  8
0
  6
SLD-Сплошная
 62
     7
370
    25
100
AcDbLine
 10
268.6435464804
 20
28.8203829925
 30
0.0
 11
268.6435464804
 21
37.9673037077
 31
0.0
  0
LINE
  5
343
330
1F
100
AcDbEntity
  8
0
  6
SLD-Сплошная
 62
     7
370
    25
100
AcDbLine
 10
268.6435464804
 20
49.1142244228
 30
0.0
 11
268.6435464804
 21
39.9673037077
 31
0.0
  0
LINE
  5
344
330
1F
100
AcDbEntity
  8
0
  6
SLD-Сплошная
 62
     7
370
    25
100
AcDbLine
 10
268.6435464804
 20
39.9673037077
 30
0.0
 11
281.6435464804
 21
39.9673037077
 31
0.0
  0
LINE
  5
345
330
1F
100
AcDbEntity
  8
0
  6
SLD-Сплошная
 62
     7
370
    25
100
AcDbLine
 10
281.6435464804
 20
55.2892202156
 30
0.0
 11
268.6435464804
 21
55.2892202156
 31
0.0
  0
LINE
  5
346
330
1F
100
AcDbEntity
  8
0
  6
SLD-Сплошная
 62
     7
370
    25
100
AcDbLine
 10
281.6435464804
 20
39.9673037077
 30
0.0
 11
281.6435464804
 21
55.2892202156
 31
0.0
  0
LINE
  5
347
330
1F
100
AcDbEntity
  8
0
  6
SLD-Сплошная
 62
     7
370
    25
100
AcDbLine
 10
268.6435464804
 20
22.6453871997
 30
0.0
 11
281.6435464804
 21
22.6453871997
 31
0.0
  0
LINE
  5
348
330
1F
100
AcDbEntity
  8
0
  6
SLD-Сплошная
 62
     7
370
    25
100
AcDbLine
 10
281.6435464804
 20
37.9673037077
 30
0.0
 11
281.6435464804
 21
22.6453871997
 31
0.0
  0
LINE
  5
349
330
1F
100
AcDbEntity
  8
0
  6
SLD-Сплошная
 62
     7
370
    25
100
AcDbLine
 10
268.6435464804
 20
56.0043181343
 30
0.0
 11
281.6435464804
 21
56.0043181343
 31
0.0
  0
LINE
  5
34A
330
1F
100
AcDbEntity
  8
0
  6
SLD-Сплошная
 62
     7
370
    25
100
AcDbLine
 10
268.6435464804
 20
61.5777784919
 30
0.0
 11
268.6435464804
 21
57.0043181343
 31
0.0
  0
LINE
  5
34B
330
1F
100
AcDbEntity
  8
0
  6
SLD-Сплошная
 62
     7
370
    25
100
AcDbLine
 10
268.6435464804
 20
57.0043181343
 30
0.0
 11
281.6435464804
 21
57.0043181343
 31
0.0
  0
LINE
  5
34C
330
1F
100
AcDbEntity
  8
0
  6
SLD-Сплошная
 62
     7
370
    25
100
AcDbLine
 10
268.6435464804
 20
56.0043181343
 30
0.0
 11
268.6435464804
 21
51.4308577767
 31
0.0
  0
LINE
  5
34D
330
1F
100
AcDbEntity
  8
0
  6
SLD-Сплошная
 62
     7
370
    25
100
AcDbLine
 10
281.6435464804
 20
57.0043181343
 30
0.0
 11
281.6435464804
 21
56.0043181343
 31
0.0
  0
LINE
  5
34E
330
1F
100
AcDbEntity
  8
0
  6
SLD-Сплошная
 62
     7
370
    25
100
AcDbLine
 10
268.6435464804
 20
20.930289281
 30
0.0
 11
281.6435464804
 21
20.930289281
 31
0.0
  0
LINE
  5
34F
330
1F
100
AcDbEntity
  8
0
  6
SLD-Сплошная
 62
     7
370
    25
100
AcDbLine
 10
268.6435464804
 20
20.930289281
 30
0.0
 11
268.6435464804
 21
16.3568289234
 31
0.0
  0
LINE
  5
350
330
1F
100
AcDbEntity
  8
0
  6
SLD-Сплошная
 62
     7
370
    25
100
AcDbLine
 10
268.6435464804
 20
16.3568289234
 30
0.0
 11
261.6435464804
 21
16.3568289234
 31
0.0
  0
LINE
  5
351
330
1F
100
AcDbEntity
  8
0
  6
SLD-Сплошная
 62
     7
370
    25
100
AcDbLine
 10
268.6435464804
 20
21.930289281
 30
0.0
 11
281.6435464804
 21
21.930289281
 31
0.0
  0
LINE
  5
352
330
1F
100
AcDbEntity
  8
0
  6
SLD-Сплошная
 62
     7
370
    25
100
AcDbLine
 10
268.6435464804
 20
21.930289281
 30
0.0
 11
268.6435464804
 21
26.5037496386
 31
0.0
  0
LINE
  5
353
330
1F
100
AcDbEntity
  8
0
  6
SLD-Сплошная
 62
     7
370
    25
100
AcDbLine
 10
281.6435464804
 20
21.930289281
 30
0.0
 11
281.6435464804
 21
20.930289281
 31
0.0
  0
LINE
  5
354
330
1F
100
AcDbEntity
  8
0
  6
SLD-Сплошная
 62
     7
370
    25
100
AcDbLine
 10
249.4261664154
 20
21.7173037077
 30
0.0
 11
258.6435464809
 21
21.7173037077
 31
0.0
  0
LINE
  5
355
330
1F
100
AcDbEntity
  8
0
  6
SLD-Сплошная
 62
     7
370
    25
100
AcDbLine
 10
249.4261664154
 20
56.2173037077
 30
0.0
 11
258.6435464809
 21
56.2173037077
 31
0.0
  0
LINE
  5
356
330
1F
100
AcDbEntity
  8
0
  6
SLD-Сплошная
 62
     7
370
    25
100
AcDbLine
 10
268.6435464804
 20
16.3173037077
 30
0.0
 11
268.6435464804
 21
16.3568289234
 31
0.0
  0
LINE
  5
357
330
1F
100
AcDbEntity
  8
0
  6
SLD-Сплошная
 62
     7
370
    25
100
AcDbLine
 10
261.6435464804
 20
16.3568289234
 30
0.0
 11
261.6435464804
 21
19.3518283119
 31
0.0
  0
LINE
  5
358
330
1F
100
AcDbEntity
  8
0
  6
SLD-Сплошная
 62
     7
370
    25
100
AcDbLine
 10
258.6435464804
 20
19.3518283119
 30
0.0
 11
258.6435464804
 21
16.3173037077
 31
0.0
  0
LINE
  5
359
330
1F
100
AcDbEntity
  8
0
  6
SLD-Сплошная
 62
     7
370
    25
100
AcDbLine
 10
281.6435464804
 20
21.930289281
 30
0.0
 11
281.6435464804
 21
22.6453871997
 31
0.0
  0
LINE
  5
35A
330
1F
100
AcDbEntity
  8
0
  6
SLD-Сплошная
 62
     7
370
    25
100
AcDbLine
 10
281.6435464804
 20
56.0043181343
 30
0.0
 11
281.6435464804
 21
55.2892202156
 31
0.0
  0
LINE
  5
35B
330
1F
100
AcDbEntity
  8
0
  6
SLD-Сплошная
 62
     7
370
    25
100
AcDbLine
 10
281.6435464804
 20
19.5173037077
 30
0.0
 11
281.6435464804
 21
20.930289281
 31
0.0
  0
LINE
  5
35C
330
1F
100
AcDbEntity
  8
0
  6
SLD-Сплошная
 62
     7
370
    25
100
AcDbLine
 10
281.6435464804
 20
57.0043181343
 30
0.0
 11
281.6435464804
 21
58.4173037077
 31
0.0
  0
LINE
  5
35D
330
1F
100
AcDbEntity
  8
0
  6
SLD-Сплошная
 62
     7
370
    25
100
AcDbLine
 10
134.5261664153
 20
39.1600941051
 30
0.0
 11
134.5261664153
 21
35.467303723
 31
0.0
  0
LINE
  5
35E
330
1F
100
AcDbEntity
  8
0
  6
SLD-Сплошная
 62
     7
370
    25
100
AcDbLine
 10
134.5261664153
 20
42.467303723
 30
0.0
 11
134.5261664153
 21
39.1600941051
 31
0.0
  0
LINE
  5
35F
330
1F
100
AcDbEntity
  8
0
  6
SLD-Сплошная
 62
     7
370
    25
100
AcDbLine
 10
163.6261664153
 20
74.499116748
 30
0.0
 11
165.6261664153
 21
74.499116748
 31
0.0
  0
LINE
  5
360
330
1F
100
AcDbEntity
  8
0
  6
SLD-Сплошная
 62
     7
370
    25
100
AcDbLine
 10
165.6261664153
 20
55.5660142705
 30
0.0
 11
165.6261664153
 21
74.499116748
 31
0.0
  0
LINE
  5
361
330
1F
100
AcDbEntity
  8
0
  6
SLD-Сплошная
 62
     7
370
    25
100
AcDbLine
 10
165.6261664153
 20
55.5660142705
 30
0.0
 11
179.6261664153
 21
55.5660142705
 31
0.0
  0
LINE
  5
362
330
1F
100
AcDbEntity
  8
0
  6
SLD-Сплошная
 62
     7
370
    25
100
AcDbLine
 10
179.6261664153
 20
55.5660142705
 30
0.0
 11
179.6261664153
 21
53.3111422627
 31
0.0
  0
LINE
  5
363
330
1F
100
AcDbEntity
  8
0
  6
SLD-Сплошная
 62
     7
370
    25
100
AcDbLine
 10
165.6261664153
 20
53.3111422627
 30
0.0
 11
179.6261664153
 21
53.3111422627
 31
0.0
  0
LINE
  5
364
330
1F
100
AcDbEntity
  8
0
  6
SLD-Сплошная
 62
     7
370
    25
100
AcDbLine
 10
165.6261664153
 20
28.7619110858
 30
0.0
 11
165.6261664153
 21
53.3111422627
 31
0.0
  0
LINE
  5
365
330
1F
100
AcDbEntity
  8
0
  6
SLD-Сплошная
 62
     7
370
    25
100
AcDbLine
 10
165.6261664153
 20
28.7619110858
 30
0.0
 11
179.6261664153
 21
28.7619110858
 31
0.0
  0
LINE
  5
366
330
1F
100
AcDbEntity
  8
0
  6
SLD-Сплошная
 62
     7
370
    25
100
AcDbLine
 10
179.6261664153
 20
28.7619110858
 30
0.0
 11
179.6261664153
 21
26.4330943533
 31
0.0
  0
LINE
  5
367
330
1F
100
AcDbEntity
  8
0
  6
SLD-Сплошная
 62
     7
370
    25
100
AcDbLine
 10
165.6261664153
 20
26.4330943533
 30
0.0
 11
179.6261664153
 21
26.4330943533
 31
0.0
  0
LINE
  5
368
330
1F
100
AcDbEntity
  8
0
  6
SLD-Сплошная
 62
     7
370
    25
100
AcDbLine
 10
165.6261664153
 20
5.8559210199
 30
0.0
 11
165.6261664153
 21
26.4330943533
 31
0.0
  0
LINE
  5
369
330
1F
100
AcDbEntity
  8
0
  6
SLD-Сплошная
 62
     7
370
    25
100
AcDbLine
 10
165.6261664153
 20
5.8559210199
 30
0.0
 11
179.6261664153
 21
5.8559210199
 31
0.0
  0
LINE
  5
36A
330
1F
100
AcDbEntity
  8
0
  6
SLD-Сплошная
 62
     7
370
    25
100
AcDbLine
 10
179.6261664153
 20
4.3426884011
 30
0.0
 11
179.6261664153
 21
5.8559210199
 31
0.0
  0
LINE
  5
36B
330
1F
100
AcDbEntity
  8
0
  6
SLD-Сплошная
 62
     7
370
    25
100
AcDbLine
 10
165.6261664153
 20
4.3426884011
 30
0.0
 11
179.6261664153
 21
4.3426884011
 31
0.0
  0
LINE
  5
36C
330
1F
100
AcDbEntity
  8
0
  6
SLD-Сплошная
 62
     7
370
    25
100
AcDbLine
 10
165.6261664153
 20
-4.4026462679
 30
0.0
 11
165.6261664153
 21
4.3426884011
 31
0.0
  0
LINE
  5
36D
330
1F
100
AcDbEntity
  8
0
  6
SLD-Сплошная
 62
     7
370
    25
100
AcDbLine
 10
165.6261664153
 20
-4.4026462679
 30
0.0
 11
179.6261664153
 21
-4.4026462679
 31
0.0
  0
LINE
  5
36E
330
1F
100
AcDbEntity
  8
0
  6
SLD-Сплошная
 62
     7
370
    25
100
AcDbLine
 10
179.6261664153
 20
-4.5222913455
 30
0.0
 11
179.6261664153
 21
-4.4026462679
 31
0.0
  0
LINE
  5
36F
330
1F
100
AcDbEntity
  8
0
  6
SLD-Сплошная
 62
     7
370
    25
100
AcDbLine
 10
165.6261664153
 20
-4.5222913455
 30
0.0
 11
179.6261664153
 21
-4.5222913455
 31
0.0
  0
LINE
  5
370
330
1F
100
AcDbEntity
  8
0
  6
SLD-Сплошная
 62
     7
370
    25
100
AcDbLine
 10
165.6261664153
 20
-4.532696277
 30
0.0
 11
165.6261664153
 21
-4.5222913455
 31
0.0
  0
LINE
  5
371
330
1F
100
AcDbEntity
  8
0
  6
SLD-Сплошная
 62
     7
370
    25
100
AcDbLine
 10
159.6261664153
 20
-4.532696277
 30
0.0
 11
159.6261664153
 21
75.3841597614
 31
0.0
  0
LWPOLYLINE
  5
372
330
1F
100
AcDbEntity
  8
0
  6
SLD-Сплошная
 62
     7
370
    25
100
AcDbPolyline
 90
        9
 70
   128
 43
0.0
 10
166.6261664182
 20
52.3809952085
 10
166.5012305172
 20
52.4972804187
 10
166.3762761641
 20
52.6135607863
 10
166.2513033595
 20
52.7298363106
 10
166.1263121043
 20
52.846106991
 10
166.0013023993
 20
52.9623728266
 10
165.8762742452
 20
53.0786338168
 10
165.7512276427
 20
53.1948899609
 10
165.6261664153
 20
53.3111422627
  0
LINE
  5
373
330
1F
100
AcDbEntity
  8
0
  6
SLD-Сплошная
 62
     7
370
    25
100
AcDbLine
 10
166.6261664182
 20
52.3809952085
 30
0.0
 11
166.6261664182
 21
29.525411982
 31
0.0
  0
LWPOLYLINE
  5
374
330
1F
100
AcDbEntity
  8
0
  6
SLD-Сплошная
 62
     7
370
    25
100
AcDbPolyline
 90
        9
 70
   128
 43
0.0
 10
165.6261664153
 20
28.7619110858
 10
165.7512314655
 20
28.8573346742
 10
165.8762780681
 20
28.9527622412
 10
166.0013062224
 20
29.0481937861
 10
166.1263159276
 20
29.1436293083
 10
166.2513071829
 20
29.2390688072
 10
166.3762799876
 20
29.3345122822
 10
166.501234341
 20
29.4299597328
 10
166.6261664182
 20
29.525411982
  0
LINE
  5
375
330
1F
100
AcDbEntity
  8
0
  6
SLD-Сплошная
 62
     7
370
    25
100
AcDbLine
 10
166.6261664182
 20
29.525411982
 30
0.0
 11
179.6261664153
 21
29.525411982
 31
0.0
  0
LINE
  5
376
330
1F
100
AcDbEntity
  8
0
  6
SLD-Сплошная
 62
     7
370
    25
100
AcDbLine
 10
179.6261664153
 20
28.7619110858
 30
0.0
 11
179.6261664153
 21
29.525411982
 31
0.0
  0
LINE
  5
377
330
1F
100
AcDbEntity
  8
0
  6
SLD-Сплошная
 62
     7
370
    25
100
AcDbLine
 10
166.6261664153
 20
26.4330943533
 30
0.0
 11
166.6261664182
 21
7.4847531839
 31
0.0
  0
LWPOLYLINE
  5
378
330
1F
100
AcDbEntity
  8
0
  6
SLD-Сплошная
 62
     7
370
    25
100
AcDbPolyline
 90
        9
 70
   128
 43
0.0
 10
165.6261664153
 20
5.8559210199
 10
165.7512314655
 20
6.0594951229
 10
165.8762780681
 20
6.2630777136
 10
166.0013062224
 20
6.4666687906
 10
166.1263159276
 20
6.6702683527
 10
166.2513071829
 20
6.8738763986
 10
166.3762799876
 20
7.0774929271
 10
166.501234341
 20
7.281117937
 10
166.6261664182
 20
7.4847531839
  0
LINE
  5
379
330
1F
100
AcDbEntity
  8
0
  6
SLD-Сплошная
 62
     7
370
    25
100
AcDbLine
 10
166.6261664182
 20
52.3809952085
 30
0.0
 11
179.6261664153
 21
52.3809952085
 31
0.0
  0
LINE
  5
37A
330
1F
100
AcDbEntity
  8
0
  6
SLD-Сплошная
 62
     7
370
    25
100
AcDbLine
 10
179.6261664153
 20
52.3809952085
 30
0.0
 11
179.6261664153
 21
29.525411982
 31
0.0
  0
LINE
  5
37B
330
1F
100
AcDbEntity
  8
0
  6
SLD-Сплошная
 62
     7
370
    25
100
AcDbLine
 10
179.6261664153
 20
53.3111422627
 30
0.0
 11
179.6261664153
 21
52.3809952085
 31
0.0
  0
LWPOLYLINE
  5
37C
330
1F
100
AcDbEntity
  8
0
  6
SLD-Сплошная
 62
     7
370
    25
100
AcDbPolyline
 90
        9
 70
   128
 43
0.0
 10
165.6261664153
 20
74.499116748
 10
165.7478150699
 20
74.2920437625
 10
165.8694469404
 20
74.0849626902
 10
165.9910620263
 20
73.8778735321
 10
166.1126603269
 20
73.6707762894
 10
166.2342418414
 20
73.4636709633
 10
166.3558065694
 20
73.2565575547
 10
166.4773545101
 20
73.0494360649
 10
166.5988856628
 20
72.8423064949
  0
SPLINE
  5
37D
330
1F
100
AcDbEntity
  8
0
  6
SLD-Сплошная
 62
     7
370
    25
100
AcDbSpline
210
0.0
220
0.0
230
1.0
 70
     8
 71
     3
 72
     8
 73
     4
 74
     0
 42
0.00000001
 43
0.00000001
 40
0.0
 40
0.0
 40
0.0
 40
0.0
 40
1.0
 40
1.0
 40
1.0
 40
1.0
 10
166.5988856627782
 20
72.84230649488698
 30
0.0
 10
166.6079128095688
 20
72.82691965884669
 30
0.0
 10
166.6170700545012
 20
72.81183032514734
 30
0.0
 10
166.6261664153079
 20
72.79734437086525
 30
0.0
  0
LINE
  5
37E
330
1F
100
AcDbEntity
  8
0
  6
SLD-Сплошная
 62
     7
370
    25
100
AcDbLine
 10
166.6261664153
 20
72.7973443709
 30
0.0
 11
166.6261664153
 21
55.5660142705
 31
0.0
  0
LINE
  5
37F
330
1F
100
AcDbEntity
  8
0
  6
SLD-Сплошная
 62
     7
370
    25
100
AcDbLine
 10
166.6261664182
 20
7.4847531839
 30
0.0
 11
179.6261664153
 21
7.4847531839
 31
0.0
  0
LINE
  5
380
330
1F
100
AcDbEntity
  8
0
  6
SLD-Сплошная
 62
     7
370
    25
100
AcDbLine
 10
179.6261664153
 20
26.4330943533
 30
0.0
 11
179.6261664153
 21
7.4847531839
 31
0.0
  0
LINE
  5
381
330
1F
100
AcDbEntity
  8
0
  6
SLD-Сплошная
 62
     7
370
    25
100
AcDbLine
 10
179.6261664153
 20
72.7973443709
 30
0.0
 11
166.6261664153
 21
72.7973443709
 31
0.0
  0
LINE
  5
382
330
1F
100
AcDbEntity
  8
0
  6
SLD-Сплошная
 62
     7
370
    25
100
AcDbLine
 10
179.6261664153
 20
72.7973443709
 30
0.0
 11
179.6261664153
 21
55.5660142705
 31
0.0
  0
LINE
  5
383
330
1F
100
AcDbEntity
  8
0
  6
SLD-Сплошная
 62
     7
370
    25
100
AcDbLine
 10
179.6261664153
 20
5.8559210199
 30
0.0
 11
179.6261664153
 21
7.4847531839
 31
0.0
  0
LWPOLYLINE
  5
384
330
1F
100
AcDbEntity
  8
0
  6
SLD-Сплошная
 62
     7
370
    25
100
AcDbPolyline
 90
        9
 70
   128
 43
0.0
 10
165.6261664153
 20
-4.4026462679
 10
165.7512314655
 20
-4.1686800384
 10
165.8762780681
 20
-3.9347040541
 10
166.0013062224
 20
-3.7007183166
 10
166.1263159276
 20
-3.4667228272
 10
166.2513071829
 20
-3.2327175875
 10
166.3762799876
 20
-2.9987025987
 10
166.501234341
 20
-2.7646778624
 10
166.6261664182
 20
-2.5306413607
  0
LINE
  5
385
330
1F
100
AcDbEntity
  8
0
  6
SLD-Сплошная
 62
     7
370
    25
100
AcDbLine
 10
166.6261664153
 20
4.3426884011
 30
0.0
 11
166.6261664182
 21
-2.5306413607
 31
0.0
  0
SPLINE
  5
386
330
1F
100
AcDbEntity
  8
0
  6
SLD-Сплошная
 62
     7
370
    25
100
AcDbSpline
210
0.0
220
0.0
230
1.0
 70
     8
 71
     3
 72
    11
 73
     7
 74
     0
 42
0.00000001
 43
0.00000001
 40
0.0
 40
0.0
 40
0.0
 40
0.0
 40
0.2298858474822448
 40
0.6075023531680075
 40
0.8023479132686784
 40
1.0
 40
1.0
 40
1.0
 40
1.0
 10
181.9793836904833
 20
77.55626405352702
 30
0.0
 10
181.9389862006885
 20
77.6125420238587
 30
0.0
 10
181.83223073757
 20
77.76126366019456
 30
0.0
 10
181.5992121489361
 20
77.88888107273415
 30
0.0
 10
181.3547755478798
 20
77.95920201146394
 30
0.0
 10
181.2231360658733
 20
77.96599350324345
 30
0.0
 10
181.1568456854727
 20
77.96941353017375
 30
0.0
  0
SPLINE
  5
387
330
1F
100
AcDbEntity
  8
0
  6
SLD-Сплошная
 62
     7
370
    25
100
AcDbSpline
210
0.0
220
0.0
230
1.0
 70
     8
 71
     3
 72
    12
 73
     8
 74
     0
 42
0.00000001
 43
0.00000001
 40
0.0
 40
0.0
 40
0.0
 40
0.0
 40
0.1328810983726333
 40
0.3423489036943207
 40
0.565172492152929
 40
0.7880844311419196
 40
1.0
 40
1.0
 40
1.0
 40
1.0
 10
182.2591057878234
 20
76.68745838546288
 30
0.0
 10
182.2617355304633
 20
76.66453919421745
 30
0.0
 10
182.2685106814878
 20
76.6054912175487
 30
0.0
 10
182.2576958752286
 20
76.35876128106497
 30
0.0
 10
182.2307306122406
 20
76.01496983763447
 30
0.0
 10
182.1880579934853
 20
75.62929641776725
 30
0.0
 10
182.1562213605825
 20
75.41619936539648
 30
0.0
 10
182.1407056030687
 20
75.31234534912527
 30
0.0
  0
SPLINE
  5
388
330
1F
100
AcDbEntity
  8
0
  6
SLD-Сплошная
 62
     7
370
    25
100
AcDbSpline
210
0.0
220
0.0
230
1.0
 70
     8
 71
     3
 72
     9
 73
     5
 74
     0
 42
0.00000001
 43
0.00000001
 40
0.0
 40
0.0
 40
0.0
 40
0.0
 40
0.2559105519614775
 40
1.0
 40
1.0
 40
1.0
 40
1.0
 10
182.1768098256125
 20
75.75830419651658
 30
0.0
 10
182.1807584324144
 20
75.71636439720369
 30
0.0
 10
182.1961880689482
 20
75.55247979380836
 30
0.0
 10
182.1568628174809
 20
75.36019341386518
 30
0.0
 10
182.1276013128227
 20
75.21711514754789
 30
0.0
  0
LINE
  5
389
330
1F
100
AcDbEntity
  8
0
  6
SLD-Сплошная
 62
     7
370
    25
100
AcDbLine
 10
163.6261664153
 20
76.8245105931
 30
0.0
 11
163.6261664153
 21
77.6445163431
 31
0.0
  0
LINE
  5
38A
330
1F
100
AcDbEntity
  8
0
  6
SLD-Сплошная
 62
     7
370
    25
100
AcDbLine
 10
163.6261664153
 20
76.3989334949
 30
0.0
 11
163.6261664153
 21
76.8245105931
 31
0.0
  0
LINE
  5
38B
330
1F
100
AcDbEntity
  8
0
  6
SLD-Сплошная
 62
     7
370
    25
100
AcDbLine
 10
163.6261664153
 20
74.499116748
 30
0.0
 11
163.6261664153
 21
76.3989334949
 31
0.0
  0
LINE
  5
38C
330
1F
100
AcDbEntity
  8
0
  6
SLD-Сплошная
 62
     7
370
    25
100
AcDbLine
 10
163.6261664153
 20
77.6445163431
 30
0.0
 11
163.6261664153
 21
77.9694135302
 31
0.0
  0
LINE
  5
38D
330
1F
100
AcDbEntity
  8
0
  6
SLD-Сплошная
 62
     7
370
    25
100
AcDbLine
 10
166.6261664182
 20
-2.5306413607
 30
0.0
 11
179.6261664153
 21
-2.5306413607
 31
0.0
  0
LINE
  5
38E
330
1F
100
AcDbEntity
  8
0
  6
SLD-Сплошная
 62
     7
370
    25
100
AcDbLine
 10
179.6261664153
 20
-2.5306413607
 30
0.0
 11
179.6261664153
 21
4.3426884011
 31
0.0
  0
LINE
  5
38F
330
1F
100
AcDbEntity
  8
0
  6
SLD-Сплошная
 62
     7
370
    25
100
AcDbLine
 10
163.6261664153
 20
77.9694135302
 30
0.0
 11
163.6261664153
 21
77.9696046812
 31
0.0
  0
LINE
  5
390
330
1F
100
AcDbEntity
  8
0
  6
SLD-Сплошная
 62
     7
370
    25
100
AcDbLine
 10
165.6317907026
 20
82.4568987915
 30
0.0
 11
179.6261664153
 21
82.4568987915
 31
0.0
  0
LINE
  5
391
330
1F
100
AcDbEntity
  8
0
  6
SLD-Сплошная
 62
     7
370
    25
100
AcDbLine
 10
165.6261664153
 20
77.9696046812
 30
0.0
 11
165.6261664153
 21
82.467303723
 31
0.0
  0
LINE
  5
392
330
1F
100
AcDbEntity
  8
0
  6
SLD-Сплошная
 62
     7
370
    25
100
AcDbLine
 10
159.6261664153
 20
75.3841597614
 30
0.0
 11
159.6261664153
 21
82.467303723
 31
0.0
  0
LINE
  5
393
330
1F
100
AcDbEntity
  8
0
  6
SLD-Сплошная
 62
     7
370
    25
100
AcDbLine
 10
166.6261664153
 20
80.617303723
 30
0.0
 11
166.6261664153
 21
77.9696046812
 31
0.0
  0
LINE
  5
394
330
1F
100
AcDbEntity
  8
0
  6
SLD-Сплошная
 62
     7
370
    25
100
AcDbLine
 10
179.6261664153
 20
77.9696046812
 30
0.0
 11
179.6261664153
 21
80.617303723
 31
0.0
  0
SPLINE
  5
395
330
1F
100
AcDbEntity
  8
0
  6
SLD-Сплошная
 62
     7
370
    25
100
AcDbSpline
210
0.0
220
0.0
230
1.0
 70
     8
 71
     3
 72
     8
 73
     4
 74
     0
 42
0.00000001
 43
0.00000001
 40
0.0
 40
0.0
 40
0.0
 40
0.0
 40
1.0
 40
1.0
 40
1.0
 40
1.0
 10
180.7170134037428
 20
66.51421823819385
 30
0.0
 10
180.5564958950407
 20
65.52224218914004
 30
0.0
 10
180.4008921958803
 20
64.54259292731105
 30
0.0
 10
180.2479923247537
 20
63.55821594339456
 30
0.0
  0
LINE
  5
396
330
1F
100
AcDbEntity
  8
0
  6
SLD-Сплошная
 62
     7
370
    25
100
AcDbLine
 10
179.6261664153
 20
-4.4026462679
 30
0.0
 11
179.6261664153
 21
-2.5306413607
 31
0.0
  0
LINE
  5
397
330
1F
100
AcDbEntity
  8
0
  6
SLD-Сплошная
 62
     7
370
    25
100
AcDbLine
 10
179.6261664153
 20
82.4568987915
 30
0.0
 11
179.6261664153
 21
80.617303723
 31
0.0
  0
SPLINE
  5
398
330
1F
100
AcDbEntity
  8
0
  6
SLD-Сплошная
 62
     7
370
    25
100
AcDbSpline
210
0.0
220
0.0
230
1.0
 70
     8
 71
     3
 72
    14
 73
    10
 74
     0
 42
0.00000001
 43
0.00000001
 40
0.0
 40
0.0
 40
0.0
 40
0.0
 40
0.25
 40
0.25
 40
0.5
 40
0.5
 40
0.75
 40
0.75
 40
1.0
 40
1.0
 40
1.0
 40
1.0
 10
182.140705603069
 20
1.639765379838599
 30
0.0
 10
182.1715186480016
 20
1.432907582974395
 30
0.0
 10
182.2036085371598
 20
1.269697692250993
 30
0.0
 10
182.252573215471
 20
1.147249330769852
 30
0.0
 10
182.2649707188465
 20
1.205789695467682
 30
0.0
 10
182.2650039682058
 20
1.453264355954394
 30
0.0
 10
182.2525471297938
 20
1.671971973669396
 30
0.0
 10
182.2036346228371
 20
2.180962974298199
 30
0.0
 10
182.1704799872249
 20
2.438120011716394
 30
0.0
 10
182.140705603069
 20
2.622262096914393
 30
0.0
  0
LINE
  5
399
330
1F
100
AcDbEntity
  8
0
  6
SLD-Сплошная
 62
     7
370
    25
100
AcDbLine
 10
180.7170134037
 20
11.4203892078
 30
0.0
 11
180.6294517403
 21
11.9673037076
 31
0.0
  0
SPLINE
  5
39A
330
1F
100
AcDbEntity
  8
0
  6
SLD-Сплошная
 62
     7
370
    25
100
AcDbSpline
210
0.0
220
0.0
230
1.0
 70
     8
 71
     3
 72
    18
 73
    14
 74
     0
 42
0.00000001
 43
0.00000001
 40
0.0
 40
0.0
 40
0.0
 40
0.0
 40
0.045425035258227
 40
0.0939980315930158
 40
0.1473863376370979
 40
0.2798806259127485
 40
0.4314256828347861
 40
0.5615677097414923
 40
0.7104949087698461
 40
0.786685193895397
 40
0.8600677763949235
 40
0.9310029524206
 40
1.0
 40
1.0
 40
1.0
 40
1.0
 10
182.1696624974842
 20
1.348778153027488
 30
0.0
 10
182.1731999068287
 20
1.322482555000573
 30
0.0
 10
182.180519868463
 20
1.268069070453133
 30
0.0
 10
182.1884412117255
 20
1.17737860755468
 30
0.0
 10
182.1949215789846
 20
1.030829183315936
 30
0.0
 10
182.1831834601707
 20
0.8160732035102716
 30
0.0
 10
182.1111403202118
 20
0.5601207568534522
 30
0.0
 10
181.9653940628974
 20
0.3188326878617517
 30
0.0
 10
181.7853722284652
 20
0.1558714936116673
 30
0.0
 10
181.6047015891391
 20
0.0563596836343425
 30
0.0
 10
181.4585369115492
 20
0.0035522029306276
 30
0.0
 10
181.3084996783039
 20
-0.0287728476018809
 30
0.0
 10
181.2069414667784
 20
-0.032721773697883
 30
0.0
 10
181.1568656759978
 20
-0.0346688894851746
 30
0.0
  0
LINE
  5
39B
330
1F
100
AcDbEntity
  8
0
  6
SLD-Сплошная
 62
     7
370
    25
100
AcDbLine
 10
182.1443310085
 20
2.5967488641
 30
0.0
 11
182.1274916927
 21
2.717902885
 31
0.0
  0
ENDSEC
  0
SECTION
  2
OBJECTS
  0
DICTIONARY
  5
C
330
0
100
AcDbDictionary
281
     1
  3
ACAD_GROUP
350
D
  3
ACAD_LAYOUT
350
1A
  3
ACAD_MLINESTYLE
350
17
  3
ACAD_PLOTSETTINGS
350
19
  3
ACAD_PLOTSTYLENAME
350
E
  3
ACAD_SCALELIST
350
47
  3
DWGPROPS
350
39C
  0
DICTIONARY
  5
D
102
{ACAD_REACTORS
330
C
102
}
330
C
100
AcDbDictionary
281
     1
  0
DICTIONARY
  5
1A
102
{ACAD_REACTORS
330
C
102
}
330
C
100
AcDbDictionary
281
     1
  3
Layout1
350
1E
  3
Layout2
350
26
  3
Model
350
22
  0
DICTIONARY
  5
17
102
{ACAD_REACTORS
330
C
102
}
330
C
100
AcDbDictionary
281
     1
  3
Standard
350
18
  0
DICTIONARY
  5
19
102
{ACAD_REACTORS
330
C
102
}
330
C
100
AcDbDictionary
281
     1
  0
ACDBDICTIONARYWDFLT
  5
E
102
{ACAD_REACTORS
330
C
102
}
330
C
100
AcDbDictionary
281
     1
  3
Normal
350
F
100
AcDbDictionaryWithDefault
340
F
  0
DICTIONARY
  5
47
102
{ACAD_REACTORS
330
C
102
}
330
C
100
AcDbDictionary
281
     1
  3
A0
350
48
  3
A1
350
49
  3
A2
350
4A
  3
A3
350
4B
  3
A4
350
4C
  3
A5
350
4D
  3
A6
350
4E
  3
A7
350
4F
  3
A8
350
50
  3
A9
350
51
  3
B0
350
52
  3
B1
350
53
  3
B2
350
54
  3
B3
350
55
  3
B4
350
56
  3
B5
350
57
  3
B6
350
58
  0
XRECORD
  5
39C
102
{ACAD_REACTORS
330
C
102
}
330
C
100
AcDbXrecord
280
     1
  1
DWGPROPS COOKIE
  2

  3

  4

  6

  7

  8
inyankin
  9

300
=
301
=
302
=
303
=
304
=
305
=
306
=
307
=
308
=
309
=
 40
0.0
 41
2461020.520545799
 42
2461020.520546678
  1

 90
        0
  0
LAYOUT
  5
1E
102
{ACAD_REACTORS
330
1A
102
}
330
1A
100
AcDbPlotSettings
  1

  2
none_device
  4

  6

 40
0.0
 41
0.0
 42
0.0
 43
0.0
 44
0.0
 45
0.0
 46
0.0
 47
0.0
 48
0.0
 49
0.0
140
0.0
141
0.0
142
1.0
143
1.0
 70
   688
 72
     1
 73
     0
 74
     5
  7

 75
    16
147
1.0
148
0.0
149
0.0
100
AcDbLayout
  1
Layout1
 70
     1
 71
     1
 10
0.0
 20
0.0
 11
420.0
 21
297.0
 12
0.0
 22
0.0
 32
0.0
 14
1.0000000000E+20
 24
1.0000000000E+20
 34
1.0000000000E+20
 15
-1.0000000000E+20
 25
-1.0000000000E+20
 35
-1.0000000000E+20
146
0.0
 13
0.0
 23
0.0
 33
0.0
 16
1.0
 26
0.0
 36
0.0
 17
0.0
 27
1.0
 37
0.0
 76
     0
330
1B
  0
LAYOUT
  5
26
102
{ACAD_REACTORS
330
1A
102
}
330
1A
100
AcDbPlotSettings
  1

  2
none_device
  4

  6

 40
0.0
 41
0.0
 42
0.0
 43
0.0
 44
0.0
 45
0.0
 46
0.0
 47
0.0
 48
0.0
 49
0.0
140
0.0
141
0.0
142
1.0
143
1.0
 70
   688
 72
     1
 73
     0
 74
     5
  7

 75
    16
147
1.0
148
0.0
149
0.0
100
AcDbLayout
  1
Layout2
 70
     1
 71
     2
 10
0.0
 20
0.0
 11
0.0
 21
0.0
 12
0.0
 22
0.0
 32
0.0
 14
0.0
 24
0.0
 34
0.0
 15
0.0
 25
0.0
 35
0.0
146
0.0
 13
0.0
 23
0.0
 33
0.0
 16
1.0
 26
0.0
 36
0.0
 17
0.0
 27
1.0
 37
0.0
 76
     0
330
23
  0
LAYOUT
  5
22
102
{ACAD_REACTORS
330
1A
102
}
330
1A
100
AcDbPlotSettings
  1

  2
none_device
  4
Letter_(8.50_x_11.00_Inches)
  6

 40
6.35
 41
6.35
 42
6.35000508
 43
6.35000508
 44
215.9
 45
279.4
 46
0.0
 47
0.0
 48
0.0
 49
0.0
140
0.0
141
0.0
142
1.0
143
1.0
 70
  1712
 72
     1
 73
     0
 74
     0
  7

 75
     0
147
1.0
148
0.0
149
0.0
100
AcDbLayout
  1
Model
 70
     1
 71
     0
 10
0.0
 20
0.0
 11
420.0
 21
297.0
 12
0.0
 22
0.0
 32
0.0
 14
0.0
 24
0.0
 34
0.0
 15
420.0
 25
297.0
 35
0.0
146
0.0
 13
0.0
 23
0.0
 33
0.0
 16
1.0
 26
0.0
 36
0.0
 17
0.0
 27
1.0
 37
0.0
 76
     0
330
1F
331
29
  0
MLINESTYLE
  5
18
102
{ACAD_REACTORS
330
17
102
}
330
17
100
AcDbMlineStyle
  2
Standard
 70
     0
  3

 62
   256
 51
90.0
 52
90.0
 71
     2
 49
0.5
 62
   256
  6
BYLAYER
 49
-0.5
 62
   256
  6
BYLAYER
  0
ACDBPLACEHOLDER
  5
F
102
{ACAD_REACTORS
330
E
102
}
330
E
  0
SCALE
  5
48
102
{ACAD_REACTORS
330
47
102
}
330
47
100
AcDbScale
 70
     0
300
1:1
140
1.0
141
1.0
290
     1
  0
SCALE
  5
49
102
{ACAD_REACTORS
330
47
102
}
330
47
100
AcDbScale
 70
     0
300
1:2
140
1.0
141
2.0
290
     0
  0
SCALE
  5
4A
102
{ACAD_REACTORS
330
47
102
}
330
47
100
AcDbScale
 70
     0
300
1:4
140
1.0
141
4.0
290
     0
  0
SCALE
  5
4B
102
{ACAD_REACTORS
330
47
102
}
330
47
100
AcDbScale
 70
     0
300
1:5
140
1.0
141
5.0
290
     0
  0
SCALE
  5
4C
102
{ACAD_REACTORS
330
47
102
}
330
47
100
AcDbScale
 70
     0
300
1:8
140
1.0
141
8.0
290
     0
  0
SCALE
  5
4D
102
{ACAD_REACTORS
330
47
102
}
330
47
100
AcDbScale
 70
     0
300
1:10
140
1.0
141
10.0
290
     0
  0
SCALE
  5
4E
102
{ACAD_REACTORS
330
47
102
}
330
47
100
AcDbScale
 70
     0
300
1:16
140
1.0
141
16.0
290
     0
  0
SCALE
  5
4F
102
{ACAD_REACTORS
330
47
102
}
330
47
100
AcDbScale
 70
     0
300
1:20
140
1.0
141
20.0
290
     0
  0
SCALE
  5
50
102
{ACAD_REACTORS
330
47
102
}
330
47
100
AcDbScale
 70
     0
300
1:30
140
1.0
141
30.0
290
     0
  0
SCALE
  5
51
102
{ACAD_REACTORS
330
47
102
}
330
47
100
AcDbScale
 70
     0
300
1:40
140
1.0
141
40.0
290
     0
  0
SCALE
  5
52
102
{ACAD_REACTORS
330
47
102
}
330
47
100
AcDbScale
 70
     0
300
1:50
140
1.0
141
50.0
290
     0
  0
SCALE
  5
53
102
{ACAD_REACTORS
330
47
102
}
330
47
100
AcDbScale
 70
     0
300
1:100
140
1.0
141
100.0
290
     0
  0
SCALE
  5
54
102
{ACAD_REACTORS
330
47
102
}
330
47
100
AcDbScale
 70
     0
300
2:1
140
2.0
141
1.0
290
     0
  0
SCALE
  5
55
102
{ACAD_REACTORS
330
47
102
}
330
47
100
AcDbScale
 70
     0
300
4:1
140
4.0
141
1.0
290
     0
  0
SCALE
  5
56
102
{ACAD_REACTORS
330
47
102
}
330
47
100
AcDbScale
 70
     0
300
8:1
140
8.0
141
1.0
290
     0
  0
SCALE
  5
57
102
{ACAD_REACTORS
330
47
102
}
330
47
100
AcDbScale
 70
     0
300
10:1
140
10.0
141
1.0
290
     0
  0
SCALE
  5
58
102
{ACAD_REACTORS
330
47
102
}
330
47
100
AcDbScale
 70
     0
300
100:1
140
100.0
141
1.0
290
     0
  0
ENDSEC
  0
EOF
