  0
SECTION
  2
HEADER
  9
$ACADVER
  1
AC1015
  9
$ACADMAINTVER
 70
     6
  9
$DWGCODEPAGE
  3
ANSI_1251
  9
$INSBASE
 10
0.0
 20
0.0
 30
0.0
  9
$EXTMIN
 10
0.0
 20
0.0
 30
0.0
  9
$EXTMAX
 10
431.8
 20
279.4
 30
0.0
  9
$LIMMIN
 10
0.0
 20
0.0
  9
$LIMMAX
 10
431.8
 20
279.4
  9
$ORTHOMODE
 70
     0
  9
$REGENMODE
 70
     1
  9
$FILLMODE
 70
     1
  9
$QTEXTMODE
 70
     0
  9
$MIRRTEXT
 70
     1
  9
$LTSCALE
 40
1.0
  9
$ATTMODE
 70
     1
  9
$TEXTSIZE
 40
3.5
  9
$TRACEWID
 40
1.0
  9
$TEXTSTYLE
  7
STANDARD
  9
$CLAYER
  8
0
  9
$CELTYPE
  6
ByLayer
  9
$CECOLOR
 62
   256
  9
$CELTSCALE
 40
1.0
  9
$DISPSILH
 70
     0
  9
$DIMSCALE
 40
1.0
  9
$DIMASZ
 40
5.0
  9
$DIMEXO
 40
0.0
  9
$DIMDLI
 40
3.75
  9
$DIMRND
 40
0.0
  9
$DIMDLE
 40
0.0
  9
$DIMEXE
 40
1.0
  9
$DIMTP
 40
0.0
  9
$DIMTM
 40
0.0
  9
$DIMTXT
 40
3.5
  9
$DIMCEN
 40
2.5
  9
$DIMTSZ
 40
0.0
  9
$DIMTOL
 70
     0
  9
$DIMLIM
 70
     0
  9
$DIMTIH
 70
     1
  9
$DIMTOH
 70
     1
  9
$DIMSE1
 70
     0
  9
$DIMSE2
 70
     0
  9
$DIMTAD
 70
     1
  9
$DIMZIN
 70
     0
  9
$DIMBLK
  1

  9
$DIMASO
 70
     1
  9
$DIMSHO
 70
     1
  9
$DIMPOST
  1

  9
$DIMAPOST
  1

  9
$DIMALT
 70
     0
  9
$DIMALTD
 70
     3
  9
$DIMALTF
 40
0.0393700787
  9
$DIMLFAC
 40
1.0
  9
$DIMTOFL
 70
     1
  9
$DIMTVP
 40
0.0
  9
$DIMTIX
 70
     0
  9
$DIMSOXD
 70
     0
  9
$DIMSAH
 70
     0
  9
$DIMBLK1
  1

  9
$DIMBLK2
  1

  9
$DIMSTYLE
  2
ISO-25
  9
$DIMCLRD
 70
     0
  9
$DIMCLRE
 70
     0
  9
$DIMCLRT
 70
     0
  9
$DIMTFAC
 40
1.0
  9
$DIMGAP
 40
1.5
  9
$DIMJUST
 70
     0
  9
$DIMSD1
 70
     0
  9
$DIMSD2
 70
     0
  9
$DIMTOLJ
 70
     0
  9
$DIMTZIN
 70
     0
  9
$DIMALTZ
 70
     0
  9
$DIMALTTZ
 70
     0
  9
$DIMUPT
 70
     0
  9
$DIMDEC
 70
     1
  9
$DIMTDEC
 70
     3
  9
$DIMALTU
 70
     2
  9
$DIMALTTD
 70
     3
  9
$DIMTXSTY
  7
STANDARD
  9
$DIMAUNIT
 70
     0
  9
$DIMADEC
 70
     2
  9
$DIMALTRND
 40
0.0
  9
$DIMAZIN
 70
     0
  9
$DIMDSEP
 70
    44
  9
$DIMATFIT
 70
     3
  9
$DIMFRAC
 70
     0
  9
$DIMLDRBLK
  1

  9
$DIMLUNIT
 70
     2
  9
$DIMLWD
 70
    -2
  9
$DIMLWE
 70
    -2
  9
$DIMTMOVE
 70
     0
  9
$LUNITS
 70
     2
  9
$LUPREC
 70
     3
  9
$SKETCHINC
 40
1.0
  9
$FILLETRAD
 40
0.0
  9
$AUNITS
 70
     0
  9
$AUPREC
 70
     2
  9
$MENU
  1
.
  9
$ELEVATION
 40
0.0
  9
$PELEVATION
 40
0.0
  9
$THICKNESS
 40
0.0
  9
$LIMCHECK
 70
     0
  9
$CHAMFERA
 40
0.0
  9
$CHAMFERB
 40
0.0
  9
$CHAMFERC
 40
0.0
  9
$CHAMFERD
 40
0.0
  9
$SKPOLY
 70
     0
  9
$TDCREATE
 40
2461026.707366146
  9
$TDUCREATE
 40
2461026.582366146
  9
$TDUPDATE
 40
2461026.707366806
  9
$TDUUPDATE
 40
2461026.582366806
  9
$TDINDWG
 40
0.0000000116
  9
$TDUSRTIMER
 40
0.0000000116
  9
$USRTIMER
 70
     1
  9
$ANGBASE
 50
0.0
  9
$ANGDIR
 70
     0
  9
$PDMODE
 70
     0
  9
$PDSIZE
 40
-1.0
  9
$PLINEWID
 40
0.0
  9
$SPLFRAME
 70
     0
  9
$SPLINETYPE
 70
     6
  9
$SPLINESEGS
 70
     8
  9
$HANDSEED
  5
426
  9
$SURFTAB1
 70
     6
  9
$SURFTAB2
 70
     6
  9
$SURFTYPE
 70
     6
  9
$SURFU
 70
     6
  9
$SURFV
 70
     6
  9
$UCSBASE
  2

  9
$UCSNAME
  2

  9
$UCSORG
 10
0.0
 20
0.0
 30
0.0
  9
$UCSXDIR
 10
1.0
 20
0.0
 30
0.0
  9
$UCSYDIR
 10
0.0
 20
1.0
 30
0.0
  9
$UCSORTHOREF
  2

  9
$UCSORTHOVIEW
 70
     0
  9
$UCSORGTOP
 10
0.0
 20
0.0
 30
0.0
  9
$UCSORGBOTTOM
 10
0.0
 20
0.0
 30
0.0
  9
$UCSORGLEFT
 10
0.0
 20
0.0
 30
0.0
  9
$UCSORGRIGHT
 10
0.0
 20
0.0
 30
0.0
  9
$UCSORGFRONT
 10
0.0
 20
0.0
 30
0.0
  9
$UCSORGBACK
 10
0.0
 20
0.0
 30
0.0
  9
$PUCSBASE
  2

  9
$PUCSNAME
  2

  9
$PUCSORG
 10
0.0
 20
0.0
 30
0.0
  9
$PUCSXDIR
 10
1.0
 20
0.0
 30
0.0
  9
$PUCSYDIR
 10
0.0
 20
1.0
 30
0.0
  9
$PUCSORTHOREF
  2

  9
$PUCSORTHOVIEW
 70
     0
  9
$PUCSORGTOP
 10
0.0
 20
0.0
 30
0.0
  9
$PUCSORGBOTTOM
 10
0.0
 20
0.0
 30
0.0
  9
$PUCSORGLEFT
 10
0.0
 20
0.0
 30
0.0
  9
$PUCSORGRIGHT
 10
0.0
 20
0.0
 30
0.0
  9
$PUCSORGFRONT
 10
0.0
 20
0.0
 30
0.0
  9
$PUCSORGBACK
 10
0.0
 20
0.0
 30
0.0
  9
$USERI1
 70
     0
  9
$USERI2
 70
     0
  9
$USERI3
 70
     0
  9
$USERI4
 70
     0
  9
$USERI5
 70
     0
  9
$USERR1
 40
0.0
  9
$USERR2
 40
0.0
  9
$USERR3
 40
0.0
  9
$USERR4
 40
0.0
  9
$USERR5
 40
0.0
  9
$WORLDVIEW
 70
     1
  9
$SHADEDGE
 70
     3
  9
$SHADEDIF
 70
    70
  9
$TILEMODE
 70
     1
  9
$MAXACTVP
 70
    64
  9
$PINSBASE
 10
0.0
 20
0.0
 30
0.0
  9
$PLIMCHECK
 70
     0
  9
$PEXTMIN
 10
1.0000000000E+20
 20
1.0000000000E+20
 30
1.0000000000E+20
  9
$PEXTMAX
 10
-1.0000000000E+20
 20
-1.0000000000E+20
 30
-1.0000000000E+20
  9
$PLIMMIN
 10
0.0
 20
0.0
  9
$PLIMMAX
 10
420.0
 20
297.0
  9
$UNITMODE
 70
     0
  9
$VISRETAIN
 70
     1
  9
$PLINEGEN
 70
     0
  9
$PSLTSCALE
 70
     1
  9
$TREEDEPTH
 70
  3020
  9
$CMLSTYLE
  2
Standard
  9
$CMLJUST
 70
     0
  9
$CMLSCALE
 40
20.0
  9
$PROXYGRAPHICS
 70
     1
  9
$MEASUREMENT
 70
     1
  9
$CELWEIGHT
370
    -1
  9
$ENDCAPS
280
     0
  9
$JOINSTYLE
280
     0
  9
$LWDISPLAY
290
     1
  9
$INSUNITS
 70
     4
  9
$HYPERLINKBASE
  1

  9
$STYLESHEET
  1

  9
$XEDIT
290
     1
  9
$CEPSNTYPE
380
     0
  9
$PSTYLEMODE
290
     1
  9
$FINGERPRINTGUID
  2
{8fa75fbe-7d6f-47fb-b31b-58c641bda622}
  9
$VERSIONGUID
  2
{FAEB1C32-E019-11D5-929B-00C0DF256EC4}
  9
$EXTNAMES
290
     1
  9
$PSVPSCALE
 40
0.0
  9
$OLESTARTUP
290
     0
  0
ENDSEC
  0
SECTION
  2
CLASSES
  0
CLASS
  1
ACDBDICTIONARYWDFLT
  2
AcDbDictionaryWithDefault
  3
ObjectDBX Classes
 90
        0
280
     0
281
     0
  0
CLASS
  1
VISUALSTYLE
  2
AcDbVisualStyle
  3
ObjectDBX Classes
 90
     4095
280
     0
281
     0
  0
CLASS
  1
MATERIAL
  2
AcDbMaterial
  3
ObjectDBX Classes
 90
     1153
280
     0
281
     0
  0
CLASS
  1
SCALE
  2
AcDbScale
  3
ObjectDBX Classes
 90
     1153
280
     0
281
     0
  0
CLASS
  1
TABLESTYLE
  2
AcDbTableStyle
  3
ObjectDBX Classes
 90
     4095
280
     0
281
     0
  0
CLASS
  1
MLEADERSTYLE
  2
AcDbMLeaderStyle
  3
ACDB_MLEADERSTYLE_CLASS
 90
     4095
280
     0
281
     0
  0
CLASS
  1
SUN
  2
AcDbSun
  3
SCENEOE
 90
     1153
280
     0
281
     0
  0
CLASS
  1
ACDBPLACEHOLDER
  2
AcDbPlaceHolder
  3
ObjectDBX Classes
 90
        0
280
     0
281
     0
  0
CLASS
  1
LAYOUT
  2
AcDbLayout
  3
ObjectDBX Classes
 90
        0
280
     0
281
     0
  0
ENDSEC
  0
SECTION
  2
TABLES
  0
TABLE
  2
VPORT
  5
8
330
0
100
AcDbSymbolTable
 70
     1
  0
VPORT
  5
29
330
8
100
AcDbSymbolTableRecord
100
AcDbViewportTableRecord
  2
*Active
 70
     0
 10
0.0
 20
0.0
 11
1.0
 21
1.0
 12
215.9
 22
139.7
 13
0.0
 23
0.0
 14
10.0
 24
10.0
 15
10.0
 25
10.0
 16
0.0
 26
0.0
 36
1.0
 17
0.0
 27
0.0
 37
0.0
 40
279.4
 41
1.5454545455
 42
50.0
 43
0.0
 44
0.0
 50
0.0
 51
0.0
 71
     0
 72
  2000
 73
     1
 74
     3
 75
     0
 76
     0
 77
     0
 78
     0
281
     0
 65
     1
110
0.0
120
0.0
130
0.0
111
1.0
121
0.0
131
0.0
112
0.0
122
1.0
132
0.0
 79
     0
146
0.0
  0
ENDTAB
  0
TABLE
  2
LTYPE
  5
5
330
0
100
AcDbSymbolTable
 70
     8
  0
LTYPE
  5
14
330
5
100
AcDbSymbolTableRecord
100
AcDbLinetypeTableRecord
  2
ByBlock
 70
     0
  3

 72
    65
 73
     0
 40
0.0
  0
LTYPE
  5
15
330
5
100
AcDbSymbolTableRecord
100
AcDbLinetypeTableRecord
  2
ByLayer
 70
     0
  3

 72
    65
 73
     0
 40
0.0
  0
LTYPE
  5
16
330
5
100
AcDbSymbolTableRecord
100
AcDbLinetypeTableRecord
  2
Continuous
 70
     0
  3
Solid line
 72
    65
 73
     0
 40
0.0
  0
LTYPE
  5
5E
330
5
100
AcDbSymbolTableRecord
100
AcDbLinetypeTableRecord
  2
SLD-Сплошная
 70
     0
  3
SolidWorks Line Style
 72
    65
 73
     0
 40
0.0
  0
LTYPE
  5
5F
330
5
100
AcDbSymbolTableRecord
100
AcDbLinetypeTableRecord
  2
SLD-Штриховая
 70
     0
  3
SolidWorks Line Style
 72
    65
 73
     2
 40
1.905
 49
1.27
 74
     0
 49
-0.635
 74
     0
  0
LTYPE
  5
60
330
5
100
AcDbSymbolTableRecord
100
AcDbLinetypeTableRecord
  2
SLD-Штрихпункт.-с-двумя-точками
 70
     0
  3
SolidWorks Line Style
 72
    65
 73
     6
 40
12.7
 49
6.35
 74
     0
 49
-1.27
 74
     0
 49
1.27
 74
     0
 49
-1.27
 74
     0
 49
1.27
 74
     0
 49
-1.27
 74
     0
  0
LTYPE
  5
61
330
5
100
AcDbSymbolTableRecord
100
AcDbLinetypeTableRecord
  2
SLD-Штрихпункт.-утолщ.
 70
     0
  3
SolidWorks Line Style
 72
    65
 73
     4
 40
10.16
 49
6.35
 74
     0
 49
-1.27
 74
     0
 49
1.27
 74
     0
 49
-1.27
 74
     0
  0
LTYPE
  5
62
330
5
100
AcDbSymbolTableRecord
100
AcDbLinetypeTableRecord
  2
SLD-Осевая
 70
     0
  3
SolidWorks Line Style
 72
    65
 73
     4
 40
19.05
 49
15.24
 74
     0
 49
-1.27
 74
     0
 49
1.27
 74
     0
 49
-1.27
 74
     0
  0
LTYPE
  5
63
330
5
100
AcDbSymbolTableRecord
100
AcDbLinetypeTableRecord
  2
SLD-Сшитая
 70
     0
  3
SolidWorks Line Style
 72
    65
 73
     2
 40
0.635
 49
0.0
 74
     0
 49
-0.635
 74
     0
  0
LTYPE
  5
64
330
5
100
AcDbSymbolTableRecord
100
AcDbLinetypeTableRecord
  2
SLD-Тонкая-Толстая
 70
     0
  3
SolidWorks Line Style
 72
    65
 73
     2
 40
5.080508
 49
0.000508
 74
     0
 49
-5.08
 74
     0
  0
ENDTAB
  0
TABLE
  2
LAYER
  5
2
330
0
100
AcDbSymbolTable
 70
     3
  0
LAYER
  5
10
330
2
100
AcDbSymbolTableRecord
100
AcDbLayerTableRecord
  2
0
 70
     0
 62
     7
  6
Continuous
370
    -3
390
F
  0
LAYER
  5
65
330
2
100
AcDbSymbolTableRecord
100
AcDbLayerTableRecord
  2
ВОДЯНОЙ_ЗНАК
 70
     0
 62
    11
  6
SLD-Сплошная
370
    -3
390
F
  0
LAYER
  5
66
330
2
100
AcDbSymbolTableRecord
100
AcDbLayerTableRecord
  2
ОСНОВНОЙ
 70
     0
 62
     7
  6
SLD-Сплошная
370
    -3
390
F
  0
ENDTAB
  0
TABLE
  2
STYLE
  5
3
330
0
100
AcDbSymbolTable
 70
     1
  0
STYLE
  5
11
330
3
100
AcDbSymbolTableRecord
100
AcDbTextStyleTableRecord
  2
STANDARD
 70
     0
 40
0.0
 41
1.0
 50
0.0
 71
     0
 42
3.5
  3
GOST-TYPE-A.TTF
  4

1001
ACAD
1000
GOST TYPE A
1071
 16777250
  0
ENDTAB
  0
TABLE
  2
VIEW
  5
6
330
0
100
AcDbSymbolTable
 70
     0
  0
ENDTAB
  0
TABLE
  2
UCS
  5
7
330
0
100
AcDbSymbolTable
 70
     0
  0
ENDTAB
  0
TABLE
  2
APPID
  5
9
330
0
100
AcDbSymbolTable
 70
     1
  0
APPID
  5
12
330
9
100
AcDbSymbolTableRecord
100
AcDbRegAppTableRecord
  2
ACAD
 70
     0
  0
ENDTAB
  0
TABLE
  2
DIMSTYLE
  5
A
330
0
100
AcDbSymbolTable
 70
     1
100
AcDbDimStyleTable
  0
DIMSTYLE
105
27
330
A
100
AcDbSymbolTableRecord
100
AcDbDimStyleTableRecord
  2
ISO-25
 70
     0
 41
2.5
 42
0.625
 43
3.75
 44
1.25
 73
     0
 74
     0
 77
     1
 78
     8
140
2.5
141
2.5
143
0.0393700787
147
0.625
171
     3
172
     1
178
     0
271
     2
272
     2
274
     3
278
    44
283
     0
284
     8
340
11
  0
ENDTAB
  0
TABLE
  2
BLOCK_RECORD
  5
1
330
0
100
AcDbSymbolTable
 70
     1
  0
BLOCK_RECORD
  5
1F
330
1
100
AcDbSymbolTableRecord
100
AcDbBlockTableRecord
  2
*Model_Space
340
22
  0
BLOCK_RECORD
  5
1B
330
1
100
AcDbSymbolTableRecord
100
AcDbBlockTableRecord
  2
*Paper_Space
340
1E
  0
BLOCK_RECORD
  5
23
330
1
100
AcDbSymbolTableRecord
100
AcDbBlockTableRecord
  2
*Paper_Space0
340
26
  0
ENDTAB
  0
ENDSEC
  0
SECTION
  2
BLOCKS
  0
BLOCK
  5
20
330
1F
100
AcDbEntity
  8
0
100
AcDbBlockBegin
  2
*Model_Space
 70
     0
 10
0.0
 20
0.0
 30
0.0
  3
*Model_Space
  1

  0
ENDBLK
  5
21
330
1F
100
AcDbEntity
  8
0
100
AcDbBlockEnd
  0
BLOCK
  5
1C
330
1B
100
AcDbEntity
 67
     1
  8
0
100
AcDbBlockBegin
  2
*Paper_Space
 70
     0
 10
0.0
 20
0.0
 30
0.0
  3
*Paper_Space
  1

  0
ENDBLK
  5
1D
330
1B
100
AcDbEntity
 67
     1
  8
0
100
AcDbBlockEnd
  0
BLOCK
  5
24
330
23
100
AcDbEntity
  8
0
100
AcDbBlockBegin
  2
*Paper_Space0
 70
     0
 10
0.0
 20
0.0
 30
0.0
  3
*Paper_Space0
  1

  0
ENDBLK
  5
25
330
23
100
AcDbEntity
  8
0
100
AcDbBlockEnd
  0
ENDSEC
  0
SECTION
  2
ENTITIES
  0
SPLINE
  5
67
330
1F
100
AcDbEntity
  8
0
  6
SLD-Сплошная
 62
     7
370
    25
100
AcDbSpline
210
0.0
220
0.0
230
1.0
 70
     8
 71
     3
 72
    12
 73
     8
 74
     0
 42
0.00000001
 43
0.00000001
 40
0.0
 40
0.0
 40
0.0
 40
0.0
 40
0.2161648260134787
 40
0.4470704028662385
 40
0.6704589587087094
 40
0.8892293463985275
 40
1.0
 40
1.0
 40
1.0
 40
1.0
 10
172.936373178069
 20
127.8292112104968
 30
0.0
 10
172.9579810797993
 20
127.6916920112665
 30
0.0
 10
173.0026703731954
 20
127.4072758787458
 30
0.0
 10
173.1467748436453
 20
126.9507205978053
 30
0.0
 10
173.3314005189388
 20
126.4823289386832
 30
0.0
 10
173.4620152774662
 20
126.1636512885533
 30
0.0
 10
173.599335346346
 20
125.9713770451601
 30
0.0
 10
173.645493584248
 20
125.9067467231585
 30
0.0
  0
SPLINE
  5
68
330
1F
100
AcDbEntity
  8
0
  6
SLD-Сплошная
 62
     7
370
    25
100
AcDbSpline
210
0.0
220
0.0
230
1.0
 70
     8
 71
     3
 72
     9
 73
     5
 74
     0
 42
0.00000001
 43
0.00000001
 40
0.0
 40
0.0
 40
0.0
 40
0.0
 40
0.5061536740689837
 40
1.0
 40
1.0
 40
1.0
 40
1.0
 10
172.9971468627418
 20
128.205301605843
 30
0.0
 10
172.9674924147608
 20
128.1251306841496
 30
0.0
 10
172.9089045796816
 20
127.9667382318158
 30
0.0
 10
172.9130363496199
 20
127.8602048642387
 30
0.0
 10
172.9150768090235
 20
127.8075937520717
 30
0.0
  0
SPLINE
  5
69
330
1F
100
AcDbEntity
  8
0
  6
SLD-Сплошная
 62
     7
370
    25
100
AcDbSpline
210
0.0
220
0.0
230
1.0
 70
     8
 71
     3
 72
     9
 73
     5
 74
     0
 42
0.00000001
 43
0.00000001
 40
0.0
 40
0.0
 40
0.0
 40
0.0
 40
0.4901504836183118
 40
1.0
 40
1.0
 40
1.0
 40
1.0
 10
173.6013894752681
 20
125.922994629943
 30
0.0
 10
173.6410340667507
 20
125.8741118033103
 30
0.0
 10
173.7219165565321
 20
125.7743815607286
 30
0.0
 10
173.9040908202901
 20
125.7040782336093
 30
0.0
 10
173.9969722805643
 20
125.6682341162774
 30
0.0
  0
LINE
  5
6A
330
1F
100
AcDbEntity
  8
0
  6
SLD-Сплошная
 62
     7
370
    25
100
AcDbLine
 10
200.57217596
 20
95.0505283001
 30
0.0
 11
205.0443904381
 21
96.6782812513
 31
0.0
  0
LINE
  5
6B
330
1F
100
AcDbEntity
  8
0
  6
SLD-Сплошная
 62
     7
370
    25
100
AcDbLine
 10
177.4852669004
 20
172.396350871
 30
0.0
 11
173.0130524224
 21
170.7685979197
 31
0.0
  0
SPLINE
  5
6C
330
1F
100
AcDbEntity
  8
0
  6
SLD-Сплошная
 62
     7
370
    25
100
AcDbSpline
210
0.0
220
0.0
230
1.0
 70
     8
 71
     3
 72
    13
 73
     9
 74
     0
 42
0.00000001
 43
0.00000001
 40
0.0
 40
0.0
 40
0.0
 40
0.0
 40
0.0404741079599336
 40
0.0782853315407834
 40
0.1464793778583402
 40
0.3764288092147502
 40
0.6038000612749999
 40
1.0
 40
1.0
 40
1.0
 40
1.0
 10
174.0245856222493
 20
129.1660707654233
 30
0.0
 10
173.9876717085445
 20
129.1514563655235
 30
0.0
 10
173.9162725321696
 20
129.1231890806075
 30
0.0
 10
173.8015610849731
 20
129.0634633436217
 30
0.0
 10
173.5942792430307
 20
128.9337418665417
 30
0.0
 10
173.400240026841
 20
128.7585603324098
 30
0.0
 10
173.1702992491873
 20
128.5026289250423
 30
0.0
 10
173.0717692405826
 20
128.3356621190038
 30
0.0
 10
173.0091659902262
 20
128.2295760148042
 30
0.0
  0
SPLINE
  5
6D
330
1F
100
AcDbEntity
  8
0
  6
SLD-Сплошная
 62
     7
370
    25
100
AcDbSpline
210
0.0
220
0.0
230
1.0
 70
     8
 71
     3
 72
    13
 73
     9
 74
     0
 42
0.00000001
 43
0.00000001
 40
0.0
 40
0.0
 40
0.0
 40
0.0
 40
0.5769000176537147
 40
0.7583381547793514
 40
0.8842069321033506
 40
0.943814401511866
 40
0.9719738361366408
 40
1.0
 40
1.0
 40
1.0
 40
1.0
 10
174.0219757273551
 20
125.6624564700333
 30
0.0
 10
174.1801029087528
 20
125.6385035116992
 30
0.0
 10
174.3879619333534
 20
125.6070172200218
 30
0.0
 10
174.7466551018732
 20
125.6291761445629
 30
0.0
 10
174.9400311491589
 20
125.6557812531559
 30
0.0
 10
175.0945117021934
 20
125.6907996737697
 30
0.0
 10
175.1932188252732
 20
125.718941107992
 30
0.0
 10
175.2441634989281
 20
125.736653987171
 30
0.0
 10
175.2695754160428
 20
125.7454894195188
 30
0.0
  0
ARC
  5
6E
330
1F
100
AcDbEntity
  8
0
  6
SLD-Сплошная
 62
     7
370
    25
100
AcDbCircle
 10
519.8964812431
 20
254.1494556358
 30
0.0
 40
367.7225000011524
100
AcDbArc
 50
203.773390773
 51
205.9784632285
  0
ARC
  5
6F
330
1F
100
AcDbEntity
  8
0
  6
SLD-Сплошная
 62
     7
370
    25
100
AcDbCircle
 10
519.8964812431
 20
254.1494556358
 30
0.0
 40
367.722500001152
100
AcDbArc
 50
194.0215367715
 51
196.226609227
  0
LINE
  5
70
330
1F
100
AcDbEntity
  8
0
  6
SLD-Сплошная
 62
     7
370
    25
100
AcDbLine
 10
175.8456818528
 20
129.8288978846
 30
0.0
 11
174.0245848839
 21
129.1660727941
 31
0.0
  0
LINE
  5
71
330
1F
100
AcDbEntity
  8
0
  6
SLD-Сплошная
 62
     7
370
    25
100
AcDbLine
 10
175.269575416
 20
125.7454894195
 30
0.0
 11
177.0873502347
 21
126.4071053461
 31
0.0
  0
LINE
  5
72
330
1F
100
AcDbEntity
  8
0
  6
SLD-Сплошная
 62
     7
370
    25
100
AcDbLine
 10
202.8576041193
 20
102.6864272834
 30
0.0
 11
203.0263866558
 21
102.7478591027
 31
0.0
  0
LINE
  5
73
330
1F
100
AcDbEntity
  8
0
  6
SLD-Сплошная
 62
     7
370
    25
100
AcDbLine
 10
231.1641367111
 20
119.0017669966
 30
0.0
 11
234.2651223597
 21
120.1304334696
 31
0.0
  0
LINE
  5
74
330
1F
100
AcDbEntity
  8
0
  6
SLD-Сплошная
 62
     7
370
    25
100
AcDbLine
 10
185.6413683457
 20
162.5588784751
 30
0.0
 11
181.6010522116
 21
161.0883236652
 31
0.0
  0
LINE
  5
75
330
1F
100
AcDbEntity
  8
0
  6
SLD-Сплошная
 62
     7
370
    25
100
AcDbLine
 10
220.6655077957
 20
172.1140893982
 30
0.0
 11
220.5552674016
 21
172.0739651762
 31
0.0
  0
LINE
  5
76
330
1F
100
AcDbEntity
  8
0
  6
SLD-Сплошная
 62
     7
370
    25
100
AcDbLine
 10
233.2390619298
 20
122.9495113319
 30
0.0
 11
237.9375250337
 21
124.6596120485
 31
0.0
  0
ARC
  5
77
330
1F
100
AcDbEntity
  8
0
  6
SLD-Сплошная
 62
     7
370
    25
100
AcDbCircle
 10
275.5970067689
 20
165.2317186802
 30
0.0
 40
111.3425925923696
100
AcDbArc
 50
187.4467314873
 51
212.5532685127
  0
LINE
  5
78
330
1F
100
AcDbEntity
  8
0
  6
SLD-Сплошная
 62
     7
370
    25
100
AcDbLine
 10
230.2939015417
 20
172.8516759171
 30
0.0
 11
228.4145163001
 21
172.1676356305
 31
0.0
  0
LINE
  5
79
330
1F
100
AcDbEntity
  8
0
  6
SLD-Сплошная
 62
     7
370
    25
100
AcDbLine
 10
237.048272661
 20
127.1028128626
 30
0.0
 11
245.7874140343
 21
130.2836001955
 31
0.0
  0
LINE
  5
7A
330
1F
100
AcDbEntity
  8
0
  6
SLD-Сплошная
 62
     7
370
    25
100
AcDbLine
 10
180.0773950452
 20
167.0079231598
 30
0.0
 11
179.5220651027
 21
166.8002938022
 31
0.0
  0
LINE
  5
7B
330
1F
100
AcDbEntity
  8
0
  6
SLD-Сплошная
 62
     7
370
    25
100
AcDbLine
 10
173.0130556156
 20
170.7685990819
 30
0.0
 11
172.7588421752
 21
168.5596965074
 31
0.0
  0
LINE
  5
7C
330
1F
100
AcDbEntity
  8
0
  6
SLD-Сплошная
 62
     7
370
    25
100
AcDbLine
 10
172.7588421752
 20
168.5596965074
 30
0.0
 11
163.1303752473
 21
165.055221144
 31
0.0
  0
LINE
  5
7D
330
1F
100
AcDbEntity
  8
0
  6
SLD-Сплошная
 62
     7
370
    25
100
AcDbLine
 10
199.4461309502
 20
96.1166821491
 30
0.0
 11
200.5721791532
 21
95.0505294623
 31
0.0
  0
LINE
  5
7E
330
1F
100
AcDbEntity
  8
0
  6
SLD-Сплошная
 62
     7
370
    25
100
AcDbLine
 10
189.3291182261
 20
93.0747663918
 30
0.0
 11
189.4654935408
 21
93.1244029471
 31
0.0
  0
LINE
  5
7F
330
1F
100
AcDbEntity
  8
0
  6
SLD-Сплошная
 62
     7
370
    25
100
AcDbLine
 10
220.5552674016
 20
110.7241165929
 30
0.0
 11
232.5835203059
 21
115.1020426203
 31
0.0
  0
LINE
  5
80
330
1F
100
AcDbEntity
  8
0
  6
SLD-Сплошная
 62
     7
370
    25
100
AcDbLine
 10
202.5133564408
 20
104.1573980339
 30
0.0
 11
210.5552674016
 21
107.0844142503
 31
0.0
  0
LINE
  5
81
330
1F
100
AcDbEntity
  8
0
  6
SLD-Сплошная
 62
     7
370
    25
100
AcDbLine
 10
243.9063032461
 20
135.4519096098
 30
0.0
 11
258.8474159166
 21
140.8900298887
 31
0.0
  0
LINE
  5
82
330
1F
100
AcDbEntity
  8
0
  6
SLD-Сплошная
 62
     7
370
    25
100
AcDbLine
 10
218.5552674016
 20
191.5637740785
 30
0.0
 11
210.5552674016
 21
191.5889069024
 31
0.0
  0
LINE
  5
83
330
1F
100
AcDbEntity
  8
0
  6
SLD-Сплошная
 62
     7
370
    25
100
AcDbLine
 10
218.5552674016
 20
91.5637740785
 30
0.0
 11
210.5552674016
 21
91.5386412546
 31
0.0
  0
LINE
  5
84
330
1F
100
AcDbEntity
  8
0
  6
SLD-Сплошная
 62
     7
370
    25
100
AcDbLine
 10
210.5552674016
 20
91.5386412546
 30
0.0
 11
210.5552674016
 21
191.5889069024
 31
0.0
  0
LINE
  5
85
330
1F
100
AcDbEntity
  8
0
  6
SLD-Сплошная
 62
     7
370
    25
100
AcDbLine
 10
218.5552674016
 20
91.5637740785
 30
0.0
 11
220.5552674016
 21
91.5637740785
 31
0.0
  0
LINE
  5
86
330
1F
100
AcDbEntity
  8
0
  6
SLD-Сплошная
 62
     7
370
    25
100
AcDbLine
 10
218.5552674016
 20
191.5637740785
 30
0.0
 11
220.5552674016
 21
191.5637740785
 31
0.0
  0
LINE
  5
87
330
1F
100
AcDbEntity
  8
0
  6
SLD-Сплошная
 62
     7
370
    25
100
AcDbLine
 10
220.5552674016
 20
91.5637740785
 30
0.0
 11
220.5552674016
 21
191.5637740785
 31
0.0
  0
LINE
  5
88
330
1F
100
AcDbEntity
  8
0
  6
SLD-Сплошная
 62
     7
370
    25
100
AcDbLine
 10
189.1738774473
 20
131.5107441283
 30
0.0
 11
188.4590262981
 21
133.4747815188
 31
0.0
  0
SPLINE
  5
89
330
1F
100
AcDbEntity
  8
0
  6
SLD-Сплошная
 62
     7
370
    25
100
AcDbSpline
210
0.0
220
0.0
230
1.0
 70
     8
 71
     3
 72
    13
 73
     9
 74
     0
 42
0.00000001
 43
0.00000001
 40
0.0
 40
0.0
 40
0.0
 40
0.0
 40
0.2500000000000012
 40
0.2500000000000012
 40
0.3750000000000015
 40
0.3750000000000015
 40
0.5000000000000019
 40
1.0
 40
1.0
 40
1.0
 40
1.0
 10
172.9217485294355
 20
127.809681028983
 30
0.0
 10
172.9132039778211
 20
127.8037029703292
 30
0.0
 10
172.9111333202109
 20
127.8080741119115
 30
0.0
 10
172.9328430928602
 20
127.8259262531697
 30
0.0
 10
172.9430698815035
 20
127.8335855036114
 30
0.0
 10
172.9812874398957
 20
127.8529680513321
 30
0.0
 10
173.120241262937
 20
127.9119903006978
 30
0.0
 10
173.4739624331286
 20
128.0287273434128
 30
0.0
 10
173.8885478137859
 20
128.1715610514875
 30
0.0
  0
SPLINE
  5
8A
330
1F
100
AcDbEntity
  8
0
  6
SLD-Сплошная
 62
     7
370
    25
100
AcDbSpline
210
0.0
220
0.0
230
1.0
 70
     8
 71
     3
 72
    13
 73
     9
 74
     0
 42
0.00000001
 43
0.00000001
 40
0.0
 40
0.0
 40
0.0
 40
0.0
 40
0.1136646409480432
 40
0.219703455674127
 40
0.4210626824832775
 40
0.6162222286351179
 40
0.7973891691030461
 40
1.0
 40
1.0
 40
1.0
 40
1.0
 10
174.6033989629059
 20
126.2075236610082
 30
0.0
 10
174.5380606896456
 20
126.1826727829324
 30
0.0
 10
174.4117677255073
 20
126.1346382865029
 30
0.0
 10
174.181018113276
 20
126.0501861828968
 30
0.0
 10
173.9423857642795
 20
125.9688792628726
 30
0.0
 10
173.7511272414923
 20
125.9139381927551
 30
0.0
 10
173.6258872172238
 20
125.8985384829157
 30
0.0
 10
173.6208837824354
 20
125.9164000738447
 30
0.0
 10
173.6182422795776
 20
125.9258298846605
 30
0.0
  0
LINE
  5
8B
330
1F
100
AcDbEntity
  8
0
  6
SLD-Сплошная
 62
     7
370
    25
100
AcDbLine
 10
188.4590262981
 20
133.4747815188
 30
0.0
 11
188.3758288841
 21
133.7033645352
 31
0.0
  0
LINE
  5
8C
330
1F
100
AcDbEntity
  8
0
  6
SLD-Сплошная
 62
     7
370
    25
100
AcDbLine
 10
173.0090678707
 20
128.2293912324
 30
0.0
 11
172.997617589
 21
128.2063217398
 31
0.0
  0
LINE
  5
8D
330
1F
100
AcDbEntity
  8
0
  6
SLD-Сплошная
 62
     7
370
    25
100
AcDbLine
 10
189.250665239
 20
131.2997714044
 30
0.0
 11
189.1738774473
 21
131.5107441283
 31
0.0
  0
LWPOLYLINE
  5
8E
330
1F
100
AcDbEntity
  8
0
  6
SLD-Сплошная
 62
     7
370
    25
100
AcDbPolyline
 90
        3
 70
   128
 43
0.0
 10
173.9378082451
 20
125.6877544498
 10
173.9435037254
 20
125.6854982364
 10
174.0217568986
 20
125.6625009662
  0
LINE
  5
8F
330
1F
100
AcDbEntity
  8
0
  6
SLD-Сплошная
 62
     7
370
    25
100
AcDbLine
 10
186.6788133922
 20
133.2222381575
 30
0.0
 11
188.331946819
 21
133.8239295182
 31
0.0
  0
ARC
  5
90
330
1F
100
AcDbEntity
  8
0
  6
SLD-Сплошная
 62
     7
370
    25
100
AcDbCircle
 10
185.5668505185
 20
142.0943265859
 30
0.0
 40
15.66584156011534
100
AcDbArc
 50
231.5951122647
 51
232.3781902929
  0
LINE
  5
91
330
1F
100
AcDbEntity
  8
0
  6
SLD-Сплошная
 62
     7
370
    25
100
AcDbLine
 10
185.6321548004
 20
133.1905566742
 30
0.0
 11
176.0036891462
 21
129.6860818932
 31
0.0
  0
SPLINE
  5
92
330
1F
100
AcDbEntity
  8
0
  6
SLD-Сплошная
 62
     7
370
    25
100
AcDbSpline
210
0.0
220
0.0
230
1.0
 70
     8
 71
     3
 72
    11
 73
     7
 74
     0
 42
0.00000001
 43
0.00000001
 40
0.0
 40
0.0
 40
0.0
 40
0.0
 40
1.0
 40
1.0
 40
1.0
 40
1.089786618789407
 40
1.089786618789407
 40
1.089786618789407
 40
1.089786618789407
 10
186.6788133921997
 20
133.2222381575241
 30
0.0
 10
186.3584978944365
 20
133.2124682806217
 30
0.0
 10
186.0383339033469
 20
133.2027676867981
 30
0.0
 10
185.7183442081734
 20
133.1931467974571
 30
0.0
 10
185.6896134153964
 20
133.1922829703335
 30
0.0
 10
185.6608826226193
 20
133.1914191432098
 30
0.0
 10
185.6321518298422
 20
133.1905553160861
 30
0.0
  0
LINE
  5
93
330
1F
100
AcDbEntity
  8
0
  6
SLD-Сплошная
 62
     7
370
    25
100
AcDbLine
 10
188.3758288841
 20
133.7033645352
 30
0.0
 11
188.331946819
 21
133.8239295182
 31
0.0
  0
ARC
  5
94
330
1F
100
AcDbEntity
  8
0
  6
SLD-Сплошная
 62
     7
370
    25
100
AcDbCircle
 10
187.3354556654
 20
122.2413176695
 30
0.0
 40
11.072096067006
100
AcDbArc
 50
157.0341525412
 51
157.902376416
  0
LINE
  5
95
330
1F
100
AcDbEntity
  8
0
  6
SLD-Сплошная
 62
     7
370
    25
100
AcDbLine
 10
187.6274073497
 20
130.615997679
 30
0.0
 11
189.2805407766
 21
131.2176890396
 31
0.0
  0
SPLINE
  5
96
330
1F
100
AcDbEntity
  8
0
  6
SLD-Сплошная
 62
     7
370
    25
100
AcDbSpline
210
0.0
220
0.0
230
1.0
 70
     8
 71
     3
 72
    11
 73
     7
 74
     0
 42
0.00000001
 43
0.00000001
 40
-0.0897866238225071
 40
-0.0897866238225071
 40
-0.0897866238225071
 40
-0.0897866238225071
 40
0.0
 40
0.0
 40
0.0
 40
1.0
 40
1.0
 40
1.0
 40
1.0
 10
186.769423034428
 20
130.0659283621019
 30
0.0
 10
186.7929714806283
 20
130.0810305692922
 30
0.0
 10
186.8165199268286
 20
130.0961327764825
 30
0.0
 10
186.8400683730289
 20
130.1112349836728
 30
0.0
 10
187.1023395800056
 20
130.2794360647177
 30
0.0
 10
187.3647938856174
 20
130.4476927185247
 30
0.0
 10
187.6274073497336
 20
130.6159976789601
 30
0.0
  0
LINE
  5
97
330
1F
100
AcDbEntity
  8
0
  6
SLD-Сплошная
 62
     7
370
    25
100
AcDbLine
 10
177.1409605644
 20
126.5614543519
 30
0.0
 11
186.7694252634
 21
130.0659290387
 31
0.0
  0
LINE
  5
98
330
1F
100
AcDbEntity
  8
0
  6
SLD-Сплошная
 62
     7
370
    25
100
AcDbLine
 10
189.2805407766
 20
131.2176890396
 30
0.0
 11
189.250665239
 21
131.2997714044
 31
0.0
  0
LWPOLYLINE
  5
99
330
1F
100
AcDbEntity
  8
0
  6
SLD-Сплошная
 62
     7
370
    25
100
AcDbPolyline
 90
        5
 70
   128
 43
0.0
 10
200.0977984741
 20
96.3538697311
 10
200.3220585352
 20
95.737720303
 10
200.4755606667
 20
95.3159767404
 10
200.5575020644
 20
95.0908447296
 10
200.5721791489
 20
95.0505294607
  0
LINE
  5
9A
330
1F
100
AcDbEntity
  8
0
  6
SLD-Сплошная
 62
     7
370
    25
100
AcDbLine
 10
189.735780242
 20
92.5824035173
 30
0.0
 11
200.0977984741
 21
96.3538697311
 31
0.0
  0
LINE
  5
9B
330
1F
100
AcDbEntity
  8
0
  6
SLD-Сплошная
 62
     7
370
    25
100
AcDbLine
 10
189.735780242
 20
92.5824035173
 30
0.0
 11
189.5415023042
 21
93.1161777645
 31
0.0
  0
LINE
  5
9C
330
1F
100
AcDbEntity
  8
0
  6
SLD-Сплошная
 62
     7
370
    25
100
AcDbLine
 10
199.9035237328
 20
96.8876451313
 30
0.0
 11
189.5415023042
 21
93.1161777645
 31
0.0
  0
LWPOLYLINE
  5
9D
330
1F
100
AcDbEntity
  8
0
  6
SLD-Сплошная
 62
     7
370
    25
100
AcDbPolyline
 90
        9
 70
   128
 43
0.0
 10
195.4498383639
 20
109.1240351802
 10
196.2019792592
 20
107.0575450802
 10
196.9049099205
 20
105.1262590386
 10
197.5549540748
 20
103.340277532
 10
198.1487120416
 20
101.7089411054
 10
198.6830785126
 20
100.2407815219
 10
199.1552587927
 20
98.9434771424
 10
199.5627834155
 20
97.8238127685
 10
199.9035237328
 20
96.8876451313
  0
LINE
  5
9E
330
1F
100
AcDbEntity
  8
0
  6
SLD-Сплошная
 62
     7
370
    25
100
AcDbLine
 10
185.0878201385
 20
105.3525689483
 30
0.0
 11
195.4498383639
 21
109.1240351802
 31
0.0
  0
LINE
  5
9F
330
1F
100
AcDbEntity
  8
0
  6
SLD-Сплошная
 62
     7
370
    25
100
AcDbLine
 10
185.0878201385
 20
105.3525689483
 30
0.0
 11
184.5451344922
 21
106.8435855074
 31
0.0
  0
LINE
  5
A0
330
1F
100
AcDbEntity
  8
0
  6
SLD-Сплошная
 62
     7
370
    25
100
AcDbLine
 10
194.9071559207
 20
110.6150528742
 30
0.0
 11
184.5451344922
 21
106.8435855074
 31
0.0
  0
LINE
  5
A1
330
1F
100
AcDbEntity
  8
0
  6
SLD-Сплошная
 62
     7
370
    25
100
AcDbLine
 10
187.6274073497
 20
130.615997679
 30
0.0
 11
194.9071559207
 21
110.6150528742
 31
0.0
  0
LWPOLYLINE
  5
A2
330
1F
100
AcDbEntity
  8
0
  6
SLD-Сплошная
 62
     7
370
    25
100
AcDbPolyline
 90
        9
 70
   128
 43
0.0
 10
179.2720567546
 20
153.5721248486
 10
180.1116956942
 20
151.2652358467
 10
180.9851242793
 20
148.8655106069
 10
181.8879250292
 20
146.3850860571
 10
182.8155319096
 20
143.8365072729
 10
183.7632534261
 20
141.2326640285
 10
184.7262963516
 20
138.5867256058
 10
185.6997899691
 20
135.9120741884
 10
186.6788133922
 20
133.2222381575
  0
LINE
  5
A3
330
1F
100
AcDbEntity
  8
0
  6
SLD-Сплошная
 62
     7
370
    25
100
AcDbLine
 10
168.91003853
 20
149.8006586145
 30
0.0
 11
179.2720567546
 21
153.5721248486
 31
0.0
  0
LINE
  5
A4
330
1F
100
AcDbEntity
  8
0
  6
SLD-Сплошная
 62
     7
370
    25
100
AcDbLine
 10
168.91003853
 20
149.8006586145
 30
0.0
 11
168.3463030157
 21
151.3495092106
 31
0.0
  0
LINE
  5
A5
330
1F
100
AcDbEntity
  8
0
  6
SLD-Сплошная
 62
     7
370
    25
100
AcDbLine
 10
178.7083244442
 20
155.1209765774
 30
0.0
 11
168.3463030157
 21
151.3495092106
 31
0.0
  0
LWPOLYLINE
  5
A6
330
1F
100
AcDbEntity
  8
0
  6
SLD-Сплошная
 62
     7
370
    25
100
AcDbPolyline
 90
        9
 70
   128
 43
0.0
 10
173.9215979677
 20
168.2723895495
 10
174.3108784752
 20
167.2028501711
 10
174.7654375107
 20
165.953959563
 10
175.2828977656
 20
164.5322493263
 10
175.8605529628
 20
162.9451548954
 10
176.4953820104
 20
161.2009766514
 10
177.1840648016
 20
159.3088365114
 10
177.9229995788
 20
157.2786302217
 10
178.7083244442
 20
155.1209765774
  0
LINE
  5
A7
330
1F
100
AcDbEntity
  8
0
  6
SLD-Сплошная
 62
     7
370
    25
100
AcDbLine
 10
163.5595797369
 20
164.5009233324
 30
0.0
 11
173.9215979677
 21
168.2723895495
 31
0.0
  0
LINE
  5
A8
330
1F
100
AcDbEntity
  8
0
  6
SLD-Сплошная
 62
     7
370
    25
100
AcDbLine
 10
163.5595797369
 20
164.5009233324
 30
0.0
 11
163.3312423972
 21
165.1282750171
 31
0.0
  0
LINE
  5
A9
330
1F
100
AcDbEntity
  8
0
  6
SLD-Сплошная
 62
     7
370
    25
100
AcDbLine
 10
173.6932638257
 20
168.8997423839
 30
0.0
 11
163.3312423972
 21
165.1282750171
 31
0.0
  0
LWPOLYLINE
  5
AA
330
1F
100
AcDbEntity
  8
0
  6
SLD-Сплошная
 62
     7
370
    25
100
AcDbPolyline
 90
        6
 70
   128
 43
0.0
 10
173.0130556113
 20
170.7685990804
 10
173.0177744664
 20
170.7556246227
 10
173.0798638271
 20
170.5850357359
 10
173.213669827
 20
170.2174070506
 10
173.4184926711
 20
169.6546612365
 10
173.6932638257
 20
168.8997423839
  0
LINE
  5
AB
330
1F
100
AcDbEntity
  8
0
  6
SLD-Сплошная
 62
     7
370
    25
100
AcDbLine
 10
163.1254116697
 20
165.6937902933
 30
0.0
 11
172.835762384
 21
169.2280689079
 31
0.0
  0
LINE
  5
AC
330
1F
100
AcDbEntity
  8
0
  6
SLD-Сплошная
 62
     7
370
    25
100
AcDbLine
 10
183.6593788877
 20
155.4331176009
 30
0.0
 11
177.4852669004
 21
172.396350871
 31
0.0
  0
LINE
  5
AD
330
1F
100
AcDbEntity
  8
0
  6
SLD-Сплошная
 62
     7
370
    25
100
AcDbLine
 10
205.0443904381
 20
96.6782812513
 30
0.0
 11
183.6593788877
 21
155.4331176009
 31
0.0
  0
LWPOLYLINE
  5
AE
330
1F
100
AcDbEntity
  8
0
  6
SLD-Сплошная
 62
     7
370
    25
100
AcDbPolyline
 90
        9
 70
   128
 43
0.0
 10
185.6321548004
 20
133.1905566742
 10
184.7186471773
 20
135.7003982512
 10
183.8106966277
 20
138.1949719138
 10
182.9127307548
 20
140.6621129225
 10
182.0291284715
 20
143.0897903126
 10
181.164198647
 20
145.466165563
 10
180.3221590945
 20
147.7796503265
 10
179.5071160034
 20
150.0189629399
 10
178.7230451538
 20
152.1731834986
  0
LINE
  5
AF
330
1F
100
AcDbEntity
  8
0
  6
SLD-Сплошная
 62
     7
370
    25
100
AcDbLine
 10
178.7230451538
 20
152.1731834986
 30
0.0
 11
179.2720567546
 21
153.5721248486
 31
0.0
  0
LINE
  5
B0
330
1F
100
AcDbEntity
  8
0
  6
SLD-Сплошная
 62
     7
370
    25
100
AcDbLine
 10
194.9071559207
 20
110.6150528742
 30
0.0
 11
193.8866791484
 21
111.2188329941
 31
0.0
  0
LINE
  5
B1
330
1F
100
AcDbEntity
  8
0
  6
SLD-Сплошная
 62
     7
370
    25
100
AcDbLine
 10
193.8866791484
 20
111.2188329941
 30
0.0
 11
193.5585443561
 21
111.4129844339
 31
0.0
  0
LWPOLYLINE
  5
B2
330
1F
100
AcDbEntity
  8
0
  6
SLD-Сплошная
 62
     7
370
    25
100
AcDbPolyline
 90
        9
 70
   128
 43
0.0
 10
193.5585443561
 20
111.4129844339
 10
192.8002060336
 20
113.4965018513
 10
192.0080152213
 20
115.6730282199
 10
191.1858350223
 20
117.9319497515
 10
190.337674782
 20
120.2622508596
 10
189.4676705374
 20
122.6525678764
 10
188.5800648471
 20
125.0912444679
 10
187.6791861028
 20
127.5663884754
 10
186.7694252634
 20
130.0659290387
  0
LINE
  5
B3
330
1F
100
AcDbEntity
  8
0
  6
SLD-Сплошная
 62
     7
370
    25
100
AcDbLine
 10
169.0945782259
 20
148.6687081353
 30
0.0
 11
176.0036891462
 21
129.6860818932
 31
0.0
  0
LINE
  5
B4
330
1F
100
AcDbEntity
  8
0
  6
SLD-Сплошная
 62
     7
370
    25
100
AcDbLine
 10
178.7230451538
 20
152.1731834986
 30
0.0
 11
169.0945782259
 21
148.6687081353
 31
0.0
  0
LINE
  5
B5
330
1F
100
AcDbEntity
  8
0
  6
SLD-Сплошная
 62
     7
370
    25
100
AcDbLine
 10
183.3763447409
 20
105.9130406238
 30
0.0
 11
176.0540066971
 21
126.0309990567
 31
0.0
  0
LINE
  5
B6
330
1F
100
AcDbEntity
  8
0
  6
SLD-Сплошная
 62
     7
370
    25
100
AcDbLine
 10
174.8090161649
 20
129.4515824313
 30
0.0
 11
166.8225698039
 21
151.3941634699
 31
0.0
  0
ARC
  5
B7
330
1F
100
AcDbEntity
  8
0
  6
SLD-Сплошная
 62
     7
370
    25
100
AcDbCircle
 10
492.431484097
 20
244.4130645698
 30
0.0
 40
338.5841305793098
100
AcDbArc
 50
193.4440347501
 51
193.5465247702
  0
LINE
  5
B8
330
1F
100
AcDbEntity
  8
0
  6
SLD-Сплошная
 62
     7
370
    25
100
AcDbLine
 10
163.7717766196
 20
163.2929853568
 30
0.0
 11
163.1303752473
 21
165.055221144
 31
0.0
  0
ARC
  5
B9
330
1F
100
AcDbEntity
  8
0
  6
SLD-Сплошная
 62
     7
370
    25
100
AcDbCircle
 10
481.9546696798
 20
240.6386140718
 30
0.0
 40
327.448774188356
100
AcDbArc
 50
193.3325160139
 51
193.6627704641
  0
ARC
  5
BA
330
1F
100
AcDbEntity
  8
0
  6
SLD-Сплошная
 62
     7
370
    25
100
AcDbCircle
 10
482.1830070267
 20
240.0112623887
 30
0.0
 40
327.4487741958268
100
AcDbArc
 50
193.3325160139
 51
193.662770464
  0
LINE
  5
BB
330
1F
100
AcDbEntity
  8
0
  6
SLD-Сплошная
 62
     7
370
    25
100
AcDbLine
 10
168.5308427116
 20
150.2175587314
 30
0.0
 11
164.0001139593
 21
162.665633672
 31
0.0
  0
ARC
  5
BC
330
1F
100
AcDbEntity
  8
0
  6
SLD-Сплошная
 62
     7
370
    25
100
AcDbCircle
 10
289.1161764889
 20
170.4573701381
 30
0.0
 40
122.2721255559133
100
AcDbArc
 50
188.9906473198
 51
189.5280752072
  0
ARC
  5
BD
330
1F
100
AcDbEntity
  8
0
  6
SLD-Сплошная
 62
     7
370
    25
100
AcDbCircle
 10
289.6799120251
 20
168.9085195455
 30
0.0
 40
122.2721255780992
100
AcDbArc
 50
188.9906473199
 51
189.5280752071
  0
SPLINE
  5
BE
330
1F
100
AcDbEntity
  8
0
  6
SLD-Сплошная
 62
     7
370
    25
100
AcDbSpline
210
0.0
220
0.0
230
1.0
 70
     8
 71
     3
 72
     8
 73
     4
 74
     0
 42
0.00000001
 43
0.00000001
 40
0.0
 40
0.0
 40
0.0
 40
0.0
 40
1.0
 40
1.0
 40
1.0
 40
1.0
 10
175.835000509158
 20
129.8179392027124
 30
0.0
 10
175.8297975304048
 20
129.8220639939551
 30
0.0
 10
175.8258310495568
 20
129.8227688491543
 30
0.0
 10
175.8230646436253
 20
129.8201545140527
 30
0.0
  0
SPLINE
  5
BF
330
1F
100
AcDbEntity
  8
0
  6
SLD-Сплошная
 62
     7
370
    25
100
AcDbSpline
210
0.0
220
0.0
230
1.0
 70
     8
 71
     3
 72
    10
 73
     6
 74
     0
 42
0.00000001
 43
0.00000001
 40
0.0
 40
0.0
 40
0.0
 40
0.0
 40
0.5
 40
0.5
 40
1.0
 40
1.0
 40
1.0
 40
1.0
 10
175.8206324995311
 20
129.8178553748295
 30
0.0
 10
175.8066598740371
 20
129.8046513533913
 30
0.0
 10
175.7828102049172
 20
129.8195892963815
 30
0.0
 10
175.7299426427489
 20
129.8654275680855
 30
0.0
 10
175.7004299125625
 20
129.8976323834216
 30
0.0
 10
175.6714516001847
 20
129.9289839723781
 30
0.0
  0
SPLINE
  5
C0
330
1F
100
AcDbEntity
  8
0
  6
SLD-Сплошная
 62
     7
370
    25
100
AcDbSpline
210
0.0
220
0.0
230
1.0
 70
     8
 71
     3
 72
    11
 73
     7
 74
     0
 42
0.00000001
 43
0.00000001
 40
0.0
 40
0.0
 40
0.0
 40
0.0
 40
0.0123773126408772
 40
0.3992837193056132
 40
0.7852896967667747
 40
1.0
 40
1.0
 40
1.0
 40
1.0
 10
177.0019149832434
 20
126.2735658700075
 30
0.0
 10
177.002013779632
 20
126.274232562777
 30
0.0
 10
177.0052008841883
 20
126.2957396197904
 30
0.0
 10
177.0121895194168
 20
126.3364206628511
 30
0.0
 10
177.0212415710734
 20
126.3877810755284
 30
0.0
 10
177.0372182226461
 20
126.392049432201
 30
0.0
 10
177.0429286583611
 20
126.3935750445157
 30
0.0
  0
LINE
  5
C1
330
1F
100
AcDbEntity
  8
0
  6
SLD-Сплошная
 62
     7
370
    25
100
AcDbLine
 10
177.0766688911
 20
126.4064833609
 30
0.0
 11
177.0715454887
 21
126.4041874632
 31
0.0
  0
LINE
  5
C2
330
1F
100
AcDbEntity
  8
0
  6
SLD-Сплошная
 62
     7
370
    25
100
AcDbLine
 10
183.9300774282
 20
107.9085090705
 30
0.0
 11
177.1409605644
 21
126.5614543519
 31
0.0
  0
ARC
  5
C3
330
1F
100
AcDbEntity
  8
0
  6
SLD-Сплошная
 62
     7
370
    25
100
AcDbCircle
 10
305.6900918295
 20
177.5221234502
 30
0.0
 40
140.2553257954798
100
AcDbArc
 50
209.7578143341
 51
210.2601937982
  0
ARC
  5
C4
330
1F
100
AcDbEntity
  8
0
  6
SLD-Сплошная
 62
     7
370
    25
100
AcDbCircle
 10
306.232777567
 20
176.031106944
 30
0.0
 40
140.2553259008556
100
AcDbArc
 50
209.7578143344
 51
210.2601937981
  0
LINE
  5
C5
330
1F
100
AcDbEntity
  8
0
  6
SLD-Сплошная
 62
     7
370
    25
100
AcDbLine
 10
188.6882617919
 20
94.8355049739
 30
0.0
 11
184.4727630745
 21
106.4174925115
 31
0.0
  0
ARC
  5
C6
330
1F
100
AcDbEntity
  8
0
  6
SLD-Сплошная
 62
     7
370
    25
100
AcDbCircle
 10
492.3889815089
 20
244.4799144739
 30
0.0
 40
338.5669453021606
100
AcDbArc
 50
206.231147452
 51
206.5559688892
  0
ARC
  5
C7
330
1F
100
AcDbEntity
  8
0
  6
SLD-Сплошная
 62
     7
370
    25
100
AcDbCircle
 10
492.5832596244
 20
243.9461403152
 30
0.0
 40
338.5669455007333
100
AcDbArc
 50
206.2311474521
 51
206.5559688892
  0
LINE
  5
C8
330
1F
100
AcDbEntity
  8
0
  6
SLD-Сплошная
 62
     7
370
    25
100
AcDbLine
 10
189.3291182261
 20
93.0747663918
 30
0.0
 11
188.8825397297
 21
94.3017307267
 31
0.0
  0
LINE
  5
C9
330
1F
100
AcDbEntity
  8
0
  6
SLD-Сплошная
 62
     7
370
    25
100
AcDbLine
 10
193.5585443561
 20
111.4129844339
 30
0.0
 11
183.9300774282
 21
107.9085090705
 31
0.0
  0
SPLINE
  5
CA
330
1F
100
AcDbEntity
  8
0
  6
SLD-Сплошная
 62
     7
370
    25
100
AcDbSpline
210
0.0
220
0.0
230
1.0
 70
     8
 71
     3
 72
     8
 73
     4
 74
     0
 42
0.00000001
 43
0.00000001
 40
0.0316531941538029
 40
0.0316531941538029
 40
0.0316531941538029
 40
0.0316531941538029
 40
1.0
 40
1.0
 40
1.0
 40
1.0
 10
175.8206324998835
 20
129.8178553738616
 30
0.0
 10
175.6710755762609
 20
129.7489547028438
 30
0.0
 10
175.5796943430233
 20
129.6997697538798
 30
0.0
 10
175.5525698885736
 20
129.6736639991828
 30
0.0
  0
LINE
  5
CB
330
1F
100
AcDbEntity
  8
0
  6
SLD-Сплошная
 62
     7
370
    25
100
AcDbLine
 10
201.3392562073
 20
106.8580538866
 30
0.0
 11
201.5080387437
 21
106.9194857059
 31
0.0
  0
LINE
  5
CC
330
1F
100
AcDbEntity
  8
0
  6
SLD-Сплошная
 62
     7
370
    25
100
AcDbLine
 10
186.0156066206
 20
161.5306672655
 30
0.0
 11
181.9752904864
 21
160.0601124556
 31
0.0
  0
LINE
  5
CD
330
1F
100
AcDbEntity
  8
0
  6
SLD-Сплошная
 62
     7
370
    25
100
AcDbLine
 10
186.3115105704
 20
160.717677845
 30
0.0
 11
182.4399769727
 21
159.3085548545
 31
0.0
  0
LINE
  5
CE
330
1F
100
AcDbEntity
  8
0
  6
SLD-Сплошная
 62
     7
370
    25
100
AcDbLine
 10
201.5080387437
 20
106.9194857059
 30
0.0
 11
182.4399769727
 21
159.3085548545
 31
0.0
  0
ARC
  5
CF
330
1F
100
AcDbEntity
  8
0
  6
SLD-Сплошная
 62
     7
370
    25
100
AcDbCircle
 10
181.2626735234
 20
123.7251440965
 30
0.0
 40
8.245615353182306
100
AcDbArc
 50
133.8284772952
 51
138.2570847373
  0
LINE
  5
D0
330
1F
100
AcDbEntity
  8
0
  6
SLD-Сплошная
 62
     7
370
    25
100
AcDbLine
 10
202.8462483323
 20
102.7176270517
 30
0.0
 11
203.0150308688
 21
102.7790588711
 31
0.0
  0
LINE
  5
D1
330
1F
100
AcDbEntity
  8
0
  6
SLD-Сплошная
 62
     7
370
    25
100
AcDbLine
 10
203.0263866558
 20
102.7478591027
 30
0.0
 11
203.0150308688
 21
102.7790588711
 31
0.0
  0
LINE
  5
D2
330
1F
100
AcDbEntity
  8
0
  6
SLD-Сплошная
 62
     7
370
    25
100
AcDbLine
 10
177.7739207231
 20
154.7808814362
 30
0.0
 11
173.6285808872
 21
166.1701090354
 31
0.0
  0
LINE
  5
D3
330
1F
100
AcDbEntity
  8
0
  6
SLD-Сплошная
 62
     7
370
    25
100
AcDbLine
 10
173.6285808872
 20
166.1701090354
 30
0.0
 11
173.9215979677
 21
168.2723895495
 31
0.0
  0
LINE
  5
D4
330
1F
100
AcDbEntity
  8
0
  6
SLD-Сплошная
 62
     7
370
    25
100
AcDbLine
 10
199.9035237328
 20
96.8876451313
 30
0.0
 11
198.7028174439
 21
97.9866017781
 31
0.0
  0
LINE
  5
D5
330
1F
100
AcDbEntity
  8
0
  6
SLD-Сплошная
 62
     7
370
    25
100
AcDbLine
 10
198.7028174439
 20
97.9866017781
 30
0.0
 11
198.3167287197
 21
98.3399803373
 31
0.0
  0
LINE
  5
D6
330
1F
100
AcDbEntity
  8
0
  6
SLD-Сплошная
 62
     7
370
    25
100
AcDbLine
 10
198.3167287197
 20
98.3399803373
 30
0.0
 11
194.5154378459
 21
108.7839411738
 31
0.0
  0
LINE
  5
D7
330
1F
100
AcDbEntity
  8
0
  6
SLD-Сплошная
 62
     7
370
    25
100
AcDbLine
 10
164.0001139593
 20
162.665633672
 30
0.0
 11
173.6285808872
 21
166.1701090354
 31
0.0
  0
LINE
  5
D8
330
1F
100
AcDbEntity
  8
0
  6
SLD-Сплошная
 62
     7
370
    25
100
AcDbLine
 10
198.3167287197
 20
98.3399803373
 30
0.0
 11
188.6882617919
 21
94.8355049739
 31
0.0
  0
LINE
  5
D9
330
1F
100
AcDbEntity
  8
0
  6
SLD-Сплошная
 62
     7
370
    25
100
AcDbLine
 10
230.89391059
 20
119.7442071624
 30
0.0
 11
220.5552674016
 21
115.9812487791
 31
0.0
  0
LINE
  5
DA
330
1F
100
AcDbEntity
  8
0
  6
SLD-Сплошная
 62
     7
370
    25
100
AcDbLine
 10
220.5552674016
 20
157.797950391
 30
0.0
 11
234.2651223597
 21
120.1304334696
 31
0.0
  0
LINE
  5
DB
330
1F
100
AcDbEntity
  8
0
  6
SLD-Сплошная
 62
     7
370
    25
100
AcDbLine
 10
210.5552674016
 20
112.3415464365
 30
0.0
 11
200.8237467249
 21
108.799562576
 31
0.0
  0
LINE
  5
DC
330
1F
100
AcDbEntity
  8
0
  6
SLD-Сплошная
 62
     7
370
    25
100
AcDbLine
 10
187.0010084896
 20
158.8232978812
 30
0.0
 11
183.129474892
 21
157.4141748907
 31
0.0
  0
LINE
  5
DD
330
1F
100
AcDbEntity
  8
0
  6
SLD-Сплошная
 62
     7
370
    25
100
AcDbLine
 10
207.8101078797
 20
163.2845639432
 30
0.0
 11
188.0013874335
 21
156.0747793219
 31
0.0
  0
LINE
  5
DE
330
1F
100
AcDbEntity
  8
0
  6
SLD-Сплошная
 62
     7
370
    25
100
AcDbLine
 10
220.6655077957
 20
172.1140893982
 30
0.0
 11
229.3015164147
 21
148.3868507234
 31
0.0
  0
LINE
  5
DF
330
1F
100
AcDbEntity
  8
0
  6
SLD-Сплошная
 62
     7
370
    25
100
AcDbLine
 10
229.3015164147
 20
148.3868507234
 30
0.0
 11
237.9375250337
 21
124.6596120485
 31
0.0
  0
LINE
  5
E0
330
1F
100
AcDbEntity
  8
0
  6
SLD-Сплошная
 62
     7
370
    25
100
AcDbLine
 10
181.7472765333
 20
105.3201082867
 30
0.0
 11
174.3560598137
 21
125.6273093261
 31
0.0
  0
LINE
  5
E1
330
1F
100
AcDbEntity
  8
0
  6
SLD-Сплошная
 62
     7
370
    25
100
AcDbLine
 10
173.2702403018
 20
128.6105739168
 30
0.0
 11
165.1935015963
 21
150.8012311327
 31
0.0
  0
LINE
  5
E2
330
1F
100
AcDbEntity
  8
0
  6
SLD-Сплошная
 62
     7
370
    25
100
AcDbLine
 10
165.1935015963
 20
150.8012311327
 30
0.0
 11
166.8225698039
 21
151.3941634699
 31
0.0
  0
LINE
  5
E3
330
1F
100
AcDbEntity
  8
0
  6
SLD-Сплошная
 62
     7
370
    25
100
AcDbLine
 10
181.7472765333
 20
105.3201082867
 30
0.0
 11
183.3763447409
 21
105.9130406238
 31
0.0
  0
LINE
  5
E4
330
1F
100
AcDbEntity
  8
0
  6
SLD-Сплошная
 62
     7
370
    25
100
AcDbLine
 10
238.040657788
 20
151.5676380563
 30
0.0
 11
230.2939015417
 21
172.8516759171
 31
0.0
  0
LINE
  5
E5
330
1F
100
AcDbEntity
  8
0
  6
SLD-Сплошная
 62
     7
370
    25
100
AcDbLine
 10
230.0766043882
 20
167.6010861393
 30
0.0
 11
223.2168482565
 21
165.1043390931
 31
0.0
  0
LINE
  5
E6
330
1F
100
AcDbEntity
  8
0
  6
SLD-Сплошная
 62
     7
370
    25
100
AcDbLine
 10
230.0766043882
 20
167.6010861393
 30
0.0
 11
228.8659147741
 21
170.927428516
 31
0.0
  0
LINE
  5
E7
330
1F
100
AcDbEntity
  8
0
  6
SLD-Сплошная
 62
     7
370
    25
100
AcDbLine
 10
228.8659147741
 20
170.927428516
 30
0.0
 11
222.0061586424
 21
168.4306814697
 31
0.0
  0
LINE
  5
E8
330
1F
100
AcDbEntity
  8
0
  6
SLD-Сплошная
 62
     7
370
    25
100
AcDbLine
 10
228.4922191571
 20
171.9541487855
 30
0.0
 11
221.6324630254
 21
169.4574017392
 31
0.0
  0
LINE
  5
E9
330
1F
100
AcDbEntity
  8
0
  6
SLD-Сплошная
 62
     7
370
    25
100
AcDbLine
 10
228.4922191571
 20
171.9541487855
 30
0.0
 11
228.4145163001
 21
172.1676356305
 31
0.0
  0
LINE
  5
EA
330
1F
100
AcDbEntity
  8
0
  6
SLD-Сплошная
 62
     7
370
    25
100
AcDbLine
 10
245.7874140343
 20
130.2836001955
 30
0.0
 11
238.040657788
 21
151.5676380563
 31
0.0
  0
LINE
  5
EB
330
1F
100
AcDbEntity
  8
0
  6
SLD-Сплошная
 62
     7
370
    25
100
AcDbLine
 10
187.5015310624
 20
173.3828573954
 30
0.0
 11
186.6558077037
 21
173.0750392664
 31
0.0
  0
ARC
  5
EC
330
1F
100
AcDbEntity
  8
0
  6
SLD-Сплошная
 62
     7
370
    25
100
AcDbCircle
 10
186.8003897686
 20
175.309227268
 30
0.0
 40
2.050000000000007
100
AcDbArc
 50
290.0
 51
110.0
  0
LINE
  5
ED
330
1F
100
AcDbEntity
  8
0
  6
SLD-Сплошная
 62
     7
370
    25
100
AcDbLine
 10
185.2535251161
 20
176.9277790116
 30
0.0
 11
186.0992484748
 21
177.2355971406
 31
0.0
  0
ARC
  5
EE
330
1F
100
AcDbEntity
  8
0
  6
SLD-Сплошная
 62
     7
370
    25
100
AcDbCircle
 10
185.9546664099
 20
175.001409139
 30
0.0
 40
2.04999999999999
100
AcDbArc
 50
110.0
 51
200.0
  0
ARC
  5
EF
330
1F
100
AcDbEntity
  8
0
  6
SLD-Сплошная
 62
     7
370
    25
100
AcDbCircle
 10
185.9546664099
 20
175.001409139
 30
0.0
 40
2.050000000000007
100
AcDbArc
 50
200.0
 51
290.0
  0
LINE
  5
F0
330
1F
100
AcDbEntity
  8
0
  6
SLD-Сплошная
 62
     7
370
    25
100
AcDbLine
 10
188.0013874335
 20
156.0747793219
 30
0.0
 11
181.6790649853
 21
173.4452174869
 31
0.0
  0
ARC
  5
F1
330
1F
100
AcDbEntity
  8
0
  6
SLD-Сплошная
 62
     7
370
    25
100
AcDbCircle
 10
186.3775280892
 20
175.1553182035
 30
0.0
 40
5.000000000000011
100
AcDbArc
 50
114.1804578695
 51
200.0
  0
LINE
  5
F2
330
1F
100
AcDbEntity
  8
0
  6
SLD-Сплошная
 62
     7
370
    25
100
AcDbLine
 10
210.5552674016
 20
191.4922089577
 30
0.0
 11
184.3294685439
 21
179.7166175906
 31
0.0
  0
LINE
  5
F3
330
1F
100
AcDbEntity
  8
0
  6
SLD-Сплошная
 62
     7
370
    25
100
AcDbLine
 10
210.5552674016
 20
164.5171623073
 30
0.0
 11
207.8101078797
 21
163.2845639432
 31
0.0
  0
LINE
  5
F4
330
1F
100
AcDbEntity
  8
0
  6
SLD-Сплошная
 62
     7
370
    25
100
AcDbLine
 10
181.5874489299
 20
161.1256983744
 30
0.0
 11
184.8335789252
 21
164.7782616677
 31
0.0
  0
LINE
  5
F5
330
1F
100
AcDbEntity
  8
0
  6
SLD-Сплошная
 62
     7
370
    25
100
AcDbLine
 10
180.903141743
 20
175.685286203
 30
0.0
 11
179.9466325093
 21
165.6338044395
 31
0.0
  0
ARC
  5
F6
330
1F
100
AcDbEntity
  8
0
  6
SLD-Сплошная
 62
     7
370
    25
100
AcDbCircle
 10
186.3391557422
 20
174.7517859955
 30
0.0
 40
5.500000000000013
100
AcDbArc
 50
100.8770471984
 51
170.2559158306
  0
ARC
  5
F7
330
1F
100
AcDbEntity
  8
0
  6
SLD-Сплошная
 62
     7
370
    25
100
AcDbCircle
 10
186.3775280893
 20
175.1553182035
 30
0.0
 40
2.050000000059502
100
AcDbArc
 50
110.0
 51
225.0
  0
ARC
  5
F8
330
1F
100
AcDbEntity
  8
0
  6
SLD-Сплошная
 62
     7
370
    25
100
AcDbCircle
 10
186.3775280893
 20
175.1553182035
 30
0.0
 40
2.050000000000652
100
AcDbArc
 50
225.0
 51
290.0
  0
ARC
  5
F9
330
1F
100
AcDbEntity
  8
0
  6
SLD-Сплошная
 62
     7
370
    25
100
AcDbCircle
 10
186.3775280893
 20
175.1553182035
 30
0.0
 40
2.050000000059502
100
AcDbArc
 50
45.0
 51
110.0
  0
ARC
  5
FA
330
1F
100
AcDbEntity
  8
0
  6
SLD-Сплошная
 62
     7
370
    25
100
AcDbCircle
 10
186.3775280893
 20
175.1553182035
 30
0.0
 40
2.049999999999586
100
AcDbArc
 50
290.0
 51
45.0
  0
LINE
  5
FB
330
1F
100
AcDbEntity
  8
0
  6
SLD-Сплошная
 62
     7
370
    25
100
AcDbLine
 10
230.89391059
 20
119.7442071624
 30
0.0
 11
232.5835203059
 21
115.1020426203
 31
0.0
  0
LINE
  5
FC
330
1F
100
AcDbEntity
  8
0
  6
SLD-Сплошная
 62
     7
370
    25
100
AcDbLine
 10
202.288343583
 20
104.2504577527
 30
0.0
 11
202.4571261194
 21
104.3118895721
 31
0.0
  0
LINE
  5
FD
330
1F
100
AcDbEntity
  8
0
  6
SLD-Сплошная
 62
     7
370
    25
100
AcDbLine
 10
253.03307348
 20
156.8648044421
 30
0.0
 11
238.0919608095
 21
151.4266841632
 31
0.0
  0
LINE
  5
FE
330
1F
100
AcDbEntity
  8
0
  6
SLD-Сплошная
 62
     7
370
    25
100
AcDbLine
 10
253.03307348
 20
156.8648044421
 30
0.0
 11
258.5053957732
 21
141.8297225095
 31
0.0
  0
LINE
  5
FF
330
1F
100
AcDbEntity
  8
0
  6
SLD-Сплошная
 62
     7
370
    25
100
AcDbLine
 10
258.5053957732
 20
141.8297225095
 30
0.0
 11
243.5642831027
 21
136.3916022306
 31
0.0
  0
LINE
  5
100
330
1F
100
AcDbEntity
  8
0
  6
SLD-Сплошная
 62
     7
370
    25
100
AcDbLine
 10
258.5053957732
 20
141.8297225095
 30
0.0
 11
258.8474159166
 21
140.8900298887
 31
0.0
  0
LINE
  5
101
330
1F
100
AcDbEntity
  8
0
  6
SLD-Сплошная
 62
     7
370
    25
100
AcDbLine
 10
203.0150308688
 20
102.7790588711
 30
0.0
 11
202.4571261194
 21
104.3118895721
 31
0.0
  0
LINE
  5
102
330
1F
100
AcDbEntity
  8
0
  6
SLD-Сплошная
 62
     7
370
    25
100
AcDbLine
 10
186.5532016607
 20
173.3569470526
 30
0.0
 11
187.3989250194
 21
173.6647651816
 31
0.0
  0
ARC
  5
103
330
1F
100
AcDbEntity
  8
0
  6
SLD-Сплошная
 62
     7
370
    25
100
AcDbCircle
 10
185.9546664099
 20
175.001409139
 30
0.0
 40
1.750000000000004
100
AcDbArc
 50
253.470392763
 51
290.0
  0
ARC
  5
104
330
1F
100
AcDbEntity
  8
0
  6
SLD-Сплошная
 62
     7
370
    25
100
AcDbCircle
 10
186.8003897686
 20
175.309227268
 30
0.0
 40
1.750000000000046
100
AcDbArc
 50
290.0
 51
326.5296072375
  0
LINE
  5
105
330
1F
100
AcDbEntity
  8
0
  6
SLD-Сплошная
 62
     7
370
    25
100
AcDbLine
 10
186.2018545178
 20
176.9536893544
 30
0.0
 11
185.3561311591
 21
176.6458712254
 31
0.0
  0
ARC
  5
106
330
1F
100
AcDbEntity
  8
0
  6
SLD-Сплошная
 62
     7
370
    25
100
AcDbCircle
 10
185.9546664099
 20
175.001409139
 30
0.0
 40
1.75000000000003
100
AcDbArc
 50
110.0
 51
146.5296072218
  0
ARC
  5
107
330
1F
100
AcDbEntity
  8
0
  6
SLD-Сплошная
 62
     7
370
    25
100
AcDbCircle
 10
186.8003897686
 20
175.309227268
 30
0.0
 40
1.750000000000022
100
AcDbArc
 50
73.4703927776
 51
110.0
  0
LINE
  5
108
330
1F
100
AcDbEntity
  8
0
  6
SLD-Сплошная
 62
     7
370
    25
100
AcDbLine
 10
95.3767609988
 20
144.9544414823
 30
0.0
 11
95.3767609988
 21
144.3065515749
 31
0.0
  0
LINE
  5
109
330
1F
100
AcDbEntity
  8
0
  6
SLD-Сплошная
 62
     7
370
    25
100
AcDbLine
 10
98.8767609988
 20
144.3065515749
 30
0.0
 11
98.8767609988
 21
144.954469907
 31
0.0
  0
LINE
  5
10A
330
1F
100
AcDbEntity
  8
0
  6
SLD-Сплошная
 62
     7
370
    25
100
AcDbLine
 10
95.3767609988
 20
150.6365776928
 30
0.0
 11
95.3767609988
 21
149.1553518085
 31
0.0
  0
LINE
  5
10B
330
1F
100
AcDbEntity
  8
0
  6
SLD-Сплошная
 62
     7
370
    25
100
AcDbLine
 10
98.8767609988
 20
149.1553518085
 30
0.0
 11
98.8767609988
 21
150.6365776928
 31
0.0
  0
LINE
  5
10C
330
1F
100
AcDbEntity
  8
0
  6
SLD-Сплошная
 62
     7
370
    25
100
AcDbLine
 10
125.3767609988
 20
144.4755359526
 30
0.0
 11
125.3767609988
 21
146.6767500068
 31
0.0
  0
LINE
  5
10D
330
1F
100
AcDbEntity
  8
0
  6
SLD-Сплошная
 62
     7
370
    25
100
AcDbLine
 10
68.8767609988
 20
146.6767500068
 30
0.0
 11
68.8767609988
 21
144.4755359526
 31
0.0
  0
LINE
  5
10E
330
1F
100
AcDbEntity
  8
0
  6
SLD-Сплошная
 62
     7
370
    25
100
AcDbLine
 10
106.5212312202
 20
150.5154383344
 30
0.0
 11
106.0776966921
 21
149.7935435932
 31
0.0
  0
LINE
  5
10F
330
1F
100
AcDbEntity
  8
0
  6
SLD-Сплошная
 62
     7
370
    25
100
AcDbLine
 10
109.7607062381
 20
155.7879928511
 30
0.0
 11
108.5798997011
 21
153.8661176072
 31
0.0
  0
LINE
  5
110
330
1F
100
AcDbEntity
  8
0
  6
SLD-Сплошная
 62
     7
370
    25
100
AcDbLine
 10
84.6267609988
 20
155.7216746919
 30
0.0
 11
84.6267609988
 21
153.5213774104
 31
0.0
  0
LINE
  5
111
330
1F
100
AcDbEntity
  8
0
  6
SLD-Сплошная
 62
     7
370
    25
100
AcDbLine
 10
88.1267609988
 20
153.5213774104
 30
0.0
 11
88.1267609988
 21
155.7216746919
 31
0.0
  0
LINE
  5
112
330
1F
100
AcDbEntity
  8
0
  6
SLD-Сплошная
 62
     7
370
    25
100
AcDbLine
 10
95.3767609988
 20
165.8233703654
 30
0.0
 11
95.3767609988
 21
163.6230730839
 31
0.0
  0
LINE
  5
113
330
1F
100
AcDbEntity
  8
0
  6
SLD-Сплошная
 62
     7
370
    25
100
AcDbLine
 10
98.8767609988
 20
163.6230730839
 30
0.0
 11
98.8767609988
 21
165.8233703654
 31
0.0
  0
LINE
  5
114
330
1F
100
AcDbEntity
  8
0
  6
SLD-Сплошная
 62
     7
370
    25
100
AcDbLine
 10
138.2958947417
 20
184.3116228354
 30
0.0
 11
138.1426493831
 21
183.331807422
 31
0.0
  0
LINE
  5
115
330
1F
100
AcDbEntity
  8
0
  6
SLD-Сплошная
 62
     7
370
    25
100
AcDbLine
 10
138.2983005919
 20
99.3270052859
 30
0.0
 11
138.1426493831
 21
98.331807422
 31
0.0
  0
LINE
  5
116
330
1F
100
AcDbEntity
  8
0
  6
SLD-Сплошная
 62
     7
370
    25
100
AcDbLine
 10
56.1108726145
 20
98.331807422
 30
0.0
 11
55.9686130365
 21
99.2413822931
 31
0.0
  0
LINE
  5
117
330
1F
100
AcDbEntity
  8
0
  6
SLD-Сплошная
 62
     7
370
    25
100
AcDbLine
 10
92.0267609988
 20
141.8297225095
 30
0.0
 11
92.0267609988
 21
136.3916022306
 31
0.0
  0
ARC
  5
118
330
1F
100
AcDbEntity
  8
0
  6
SLD-Сплошная
 62
     7
370
    25
100
AcDbCircle
 10
97.1267609988
 20
155.1890365301
 30
0.0
 40
14.29969479043297
100
AcDbArc
 50
249.1053375841
 51
290.8946624159
  0
LINE
  5
119
330
1F
100
AcDbEntity
  8
0
  6
SLD-Сплошная
 62
     7
370
    25
100
AcDbLine
 10
102.2267609988
 20
141.8297225095
 30
0.0
 11
102.2267609988
 21
136.3916022306
 31
0.0
  0
ARC
  5
11A
330
1F
100
AcDbEntity
  8
0
  6
SLD-Сплошная
 62
     7
370
    25
100
AcDbCircle
 10
97.1267609988
 20
149.7509162512
 30
0.0
 40
14.29969479043334
100
AcDbArc
 50
249.1053375841
 51
290.8946624159
  0
LINE
  5
11B
330
1F
100
AcDbEntity
  8
0
  6
SLD-Сплошная
 62
     7
370
    25
100
AcDbLine
 10
99.3767609988
 20
151.3206179794
 30
0.0
 11
94.8767609988
 21
151.3206179794
 31
0.0
  0
LINE
  5
11C
330
1F
100
AcDbEntity
  8
0
  6
SLD-Сплошная
 62
     7
370
    25
100
AcDbLine
 10
94.8767609988
 20
151.3206179794
 30
0.0
 11
94.8768651954
 21
145.6151299936
 31
0.0
  0
ARC
  5
11D
330
1F
100
AcDbEntity
  8
0
  6
SLD-Сплошная
 62
     7
370
    25
100
AcDbCircle
 10
97.1262812943
 20
145.7429124476
 30
0.0
 40
2.253042640880259
100
AcDbArc
 50
183.2513037817
 51
357.266852829
  0
LINE
  5
11E
330
1F
100
AcDbEntity
  8
0
  6
SLD-Сплошная
 62
     7
370
    25
100
AcDbLine
 10
99.3767609988
 20
145.6354776237
 30
0.0
 11
99.3767609988
 21
151.3206179794
 31
0.0
  0
LINE
  5
11F
330
1F
100
AcDbEntity
  8
0
  6
SLD-Сплошная
 62
     7
370
    25
100
AcDbLine
 10
102.2267609988
 20
156.8648044421
 30
0.0
 11
92.0267609988
 21
156.8648044421
 31
0.0
  0
LINE
  5
120
330
1F
100
AcDbEntity
  8
0
  6
SLD-Сплошная
 62
     7
370
    25
100
AcDbLine
 10
102.2267609988
 20
141.8297225095
 30
0.0
 11
102.2267609988
 21
156.8648044421
 31
0.0
  0
LINE
  5
121
330
1F
100
AcDbEntity
  8
0
  6
SLD-Сплошная
 62
     7
370
    25
100
AcDbLine
 10
92.0267609988
 20
156.8648044421
 30
0.0
 11
92.0267609988
 21
141.8297225095
 31
0.0
  0
LINE
  5
122
330
1F
100
AcDbEntity
  8
0
  6
SLD-Сплошная
 62
     7
370
    25
100
AcDbLine
 10
99.3767609988
 20
150.6365776928
 30
0.0
 11
94.8767609988
 21
150.6365776928
 31
0.0
  0
ARC
  5
123
330
1F
100
AcDbEntity
  8
0
  6
SLD-Сплошная
 62
     7
370
    25
100
AcDbCircle
 10
97.1267608276
 20
145.3366245266
 30
0.0
 40
4.200030292734498
100
AcDbArc
 50
57.6078939244
 51
122.3913813989
  0
LINE
  5
124
330
1F
100
AcDbEntity
  8
0
  6
SLD-Сплошная
 62
     7
370
    25
100
AcDbLine
 10
95.1267609988
 20
145.0706267232
 30
0.0
 11
95.2136933724
 21
144.5225576929
 31
0.0
  0
LINE
  5
125
330
1F
100
AcDbEntity
  8
0
  6
SLD-Сплошная
 62
     7
370
    25
100
AcDbLine
 10
99.0398286252
 20
144.5225576929
 30
0.0
 11
99.1267609988
 21
145.0706267232
 31
0.0
  0
ARC
  5
126
330
1F
100
AcDbEntity
  8
0
  6
SLD-Сплошная
 62
     7
370
    25
100
AcDbCircle
 10
97.1267609988
 20
144.9803513151
 30
0.0
 40
2.002036375620122
100
AcDbArc
 50
2.5844456975
 51
177.4155543025
  0
SPLINE
  5
127
330
1F
100
AcDbEntity
  8
0
  6
SLD-Сплошная
 62
     7
370
    25
100
AcDbSpline
210
0.0
220
0.0
230
1.0
 70
     8
 71
     3
 72
    28
 73
    24
 74
     0
 42
0.00000001
 43
0.00000001
 40
0.0
 40
0.0
 40
0.0
 40
0.0
 40
0.000019881490582
 40
0.0551156515581756
 40
0.1247901796244353
 40
0.1873322834572114
 40
0.249463935221782
 40
0.3170746299576892
 40
0.3744548391264433
 40
0.4386079217071994
 40
0.4992807470294331
 40
0.5600717309138944
 40
0.6243827264738637
 40
0.6817697289227259
 40
0.7494045073151535
 40
0.790898247488336
 40
0.8325518793767303
 40
0.8743672786293956
 40
0.8963512743773485
 40
0.9197011337785114
 40
0.9445543264881299
 40
0.9738612367597035
 40
1.0
 40
1.0
 40
1.0
 40
1.0
 10
98.87676099483106
 20
144.9544197609256
 30
0.0
 10
98.87676099661718
 20
144.9544332209009
 30
0.0
 10
98.87676594812066
 20
144.9917470885944
 30
0.0
 10
98.85277767478023
 20
145.1229798574118
 30
0.0
 10
98.75110830289454
 20
145.3803406307786
 30
0.0
 10
98.59245489266411
 20
145.6642611019244
 30
0.0
 10
98.38653127163893
 20
145.9343967822312
 30
0.0
 10
98.1348200520166
 20
146.1699450217064
 30
0.0
 10
97.83209218501706
 20
146.3649138590037
 30
0.0
 10
97.49740418845434
 20
146.4911432016978
 30
0.0
 10
97.12929271536751
 20
146.5374810186589
 30
0.0
 10
96.76063369872453
 20
146.4923598803107
 30
0.0
 10
96.42499600629787
 20
146.3667068735845
 30
0.0
 10
96.12141203870195
 20
146.1722730376877
 30
0.0
 10
95.8972100622613
 20
145.9623297275113
 30
0.0
 10
95.72822079845814
 20
145.755734999101
 30
0.0
 10
95.60898212011773
 20
145.5794083246402
 30
0.0
 10
95.52868481537189
 20
145.4233688809688
 30
0.0
 10
95.47361679305878
 20
145.2975388224544
 30
0.0
 10
95.43538018200344
 20
145.2048077516462
 30
0.0
 10
95.4031505756849
 20
145.1093326505407
 30
0.0
 10
95.3809706544281
 20
145.0182105636437
 30
0.0
 10
95.37810972923629
 20
144.9748576379955
 30
0.0
 10
95.37676100278928
 20
144.9544197609256
 30
0.0
  0
ARC
  5
128
330
1F
100
AcDbEntity
  8
0
  6
SLD-Сплошная
 62
     7
370
    25
100
AcDbCircle
 10
97.1267609988
 20
141.6161955471
 30
0.0
 40
3.095391873093067
100
AcDbArc
 50
57.2988972977
 51
122.7011027023
  0
LWPOLYLINE
  5
129
330
1F
100
AcDbEntity
  8
0
  6
SLD-Сплошная
 62
     7
370
    25
100
AcDbPolyline
 90
        3
 70
   128
 43
0.0
 10
94.8767775629
 20
150.413619706
 10
95.3634052419
 20
150.2622009866
 10
95.3767609988
 20
150.258901312
  0
LWPOLYLINE
  5
12A
330
1F
100
AcDbEntity
  8
0
  6
SLD-Сплошная
 62
     7
370
    25
100
AcDbPolyline
 90
        3
 70
   128
 43
0.0
 10
98.8767609988
 20
150.258901312
 10
98.8901167557
 20
150.2622009866
 10
99.3767609988
 20
150.4136261297
  0
LWPOLYLINE
  5
12B
330
1F
100
AcDbEntity
  8
0
  6
SLD-Сплошная
 62
     7
370
    25
100
AcDbPolyline
 90
       36
 70
   128
 43
0.0
 10
119.7767609988
 20
151.5676380563
 10
119.6855787578
 20
149.6597516118
 10
119.4127661806
 20
147.7672263471
 10
118.9605197936
 20
145.9052997629
 10
118.3324808188
 20
144.0889629972
 10
117.5337058568
 20
142.3328401258
 10
116.5706261739
 20
140.6510704172
 10
115.4509959214
 20
139.0571944925
 10
114.1838297038
 20
137.5640453033
 10
112.7793299984
 20
136.183644809
 10
111.2488050109
 20
134.9271071827
 10
109.6045776287
 20
133.8045493265
 10
107.8598862038
 20
132.8250094162
 10
106.0287779658
 20
131.9963741313
 10
104.1259959214
 20
131.3253151557
 10
102.1668601529
 20
130.8172354619
 10
100.1671444696
 20
130.4762258087
 10
98.1429494062
 20
130.3050318054
 10
96.1105725914
 20
130.3050318054
 10
94.086377528
 20
130.4762258087
 10
92.0866618447
 20
130.8172354619
 10
90.1275260762
 20
131.3253151557
 10
88.2247440318
 20
131.9963741313
 10
86.3936357938
 20
132.8250094162
 10
84.6489443689
 20
133.8045493265
 10
83.0047169867
 20
134.9271071827
 10
81.4741919993
 20
136.183644809
 10
80.0696922938
 20
137.5640453033
 10
78.8025260762
 20
139.0571944925
 10
77.6828958237
 20
140.6510704172
 10
76.7198161408
 20
142.3328401258
 10
75.9210411788
 20
144.0889629972
 10
75.293002204
 20
145.9052997629
 10
74.8407558171
 20
147.7672263471
 10
74.5679432398
 20
149.6597516118
 10
74.4767609988
 20
151.5676380563
  0
LINE
  5
12C
330
1F
100
AcDbEntity
  8
0
  6
SLD-Сплошная
 62
     7
370
    25
100
AcDbLine
 10
119.7767609988
 20
148.3868507234
 30
0.0
 11
119.7767609988
 21
151.5676380563
 31
0.0
  0
LWPOLYLINE
  5
12D
330
1F
100
AcDbEntity
  8
0
  6
SLD-Сплошная
 62
     7
370
    25
100
AcDbPolyline
 90
       36
 70
   128
 43
0.0
 10
74.4767609988
 20
148.3868507234
 10
74.5679432398
 20
146.4789642789
 10
74.8407558171
 20
144.5864390142
 10
75.293002204
 20
142.72451243
 10
75.9210411788
 20
140.9081756643
 10
76.7198161408
 20
139.1520527928
 10
77.6828958237
 20
137.4702830843
 10
78.8025260762
 20
135.8764071596
 10
80.0696922938
 20
134.3832579704
 10
81.4741919993
 20
133.0028574761
 10
83.0047169867
 20
131.7463198498
 10
84.6489443689
 20
130.6237619936
 10
86.3936357938
 20
129.6442220833
 10
88.2247440318
 20
128.8155867984
 10
90.1275260762
 20
128.1445278228
 10
92.0866618447
 20
127.636448129
 10
94.086377528
 20
127.2954384758
 10
96.1105725914
 20
127.1242444725
 10
98.1429494062
 20
127.1242444725
 10
100.1671444696
 20
127.2954384758
 10
102.1668601529
 20
127.636448129
 10
104.1259959214
 20
128.1445278228
 10
106.0287779658
 20
128.8155867984
 10
107.8598862038
 20
129.6442220833
 10
109.6045776287
 20
130.6237619936
 10
111.2488050109
 20
131.7463198498
 10
112.7793299984
 20
133.0028574761
 10
114.1838297038
 20
134.3832579704
 10
115.4509959214
 20
135.8764071596
 10
116.5706261739
 20
137.4702830843
 10
117.5337058568
 20
139.1520527928
 10
118.3324808188
 20
140.9081756643
 10
118.9605197936
 20
142.72451243
 10
119.4127661806
 20
144.5864390142
 10
119.6855787578
 20
146.4789642789
 10
119.7767609988
 20
148.3868507234
  0
LINE
  5
12E
330
1F
100
AcDbEntity
  8
0
  6
SLD-Сплошная
 62
     7
370
    25
100
AcDbLine
 10
74.4767609988
 20
148.3868507234
 30
0.0
 11
74.4767609988
 21
151.5676380563
 31
0.0
  0
ARC
  5
12F
330
1F
100
AcDbEntity
  8
0
  6
SLD-Сплошная
 62
     7
370
    25
100
AcDbCircle
 10
97.1267609988
 20
161.7760585149
 30
0.0
 40
2.252529728938785
100
AcDbArc
 50
182.7156888691
 51
357.2843111309
  0
LINE
  5
130
330
1F
100
AcDbEntity
  8
0
  6
SLD-Сплошная
 62
     7
370
    25
100
AcDbLine
 10
99.3767609988
 20
161.6693337298
 30
0.0
 11
99.3767609988
 21
169.7037056375
 31
0.0
  0
LINE
  5
131
330
1F
100
AcDbEntity
  8
0
  6
SLD-Сплошная
 62
     7
370
    25
100
AcDbLine
 10
99.3767609988
 20
169.7037056375
 30
0.0
 11
94.8767609988
 21
169.7037056375
 31
0.0
  0
LINE
  5
132
330
1F
100
AcDbEntity
  8
0
  6
SLD-Сплошная
 62
     7
370
    25
100
AcDbLine
 10
94.8767609988
 20
169.7037056375
 30
0.0
 11
94.8767609988
 21
161.6693337298
 31
0.0
  0
LINE
  5
133
330
1F
100
AcDbEntity
  8
0
  6
SLD-Сплошная
 62
     7
370
    25
100
AcDbLine
 10
114.0774658748
 20
156.9892583343
 30
0.0
 11
110.1766823744
 21
159.0975835079
 31
0.0
  0
LINE
  5
134
330
1F
100
AcDbEntity
  8
0
  6
SLD-Сплошная
 62
     7
370
    25
100
AcDbLine
 10
110.1766823744
 20
159.0975835079
 30
0.0
 11
105.9137800791
 21
152.1330623137
 31
0.0
  0
ARC
  5
135
330
1F
100
AcDbEntity
  8
0
  6
SLD-Сплошная
 62
     7
370
    25
100
AcDbCircle
 10
107.8955286028
 20
151.1369154381
 30
0.0
 40
2.218025204720751
100
AcDbArc
 50
153.3131263425
 51
329.9055283171
  0
LINE
  5
136
330
1F
100
AcDbEntity
  8
0
  6
SLD-Сплошная
 62
     7
370
    25
100
AcDbLine
 10
109.8145635796
 20
150.0247371401
 30
0.0
 11
114.0774658748
 21
156.9892583343
 31
0.0
  0
LINE
  5
137
330
1F
100
AcDbEntity
  8
0
  6
SLD-Сплошная
 62
     7
370
    25
100
AcDbLine
 10
88.6326859291
 20
159.0381943916
 30
0.0
 11
84.1326859291
 21
159.0381943916
 31
0.0
  0
LINE
  5
138
330
1F
100
AcDbEntity
  8
0
  6
SLD-Сплошная
 62
     7
370
    25
100
AcDbLine
 10
84.1326859291
 20
159.0381943916
 30
0.0
 11
84.1326859291
 21
151.2322969282
 31
0.0
  0
ARC
  5
139
330
1F
100
AcDbEntity
  8
0
  6
SLD-Сплошная
 62
     7
370
    25
100
AcDbCircle
 10
86.3826859291
 20
151.3390217133
 30
0.0
 40
2.252529728938768
100
AcDbArc
 50
182.7156888691
 51
357.2843111309
  0
LINE
  5
13A
330
1F
100
AcDbEntity
  8
0
  6
SLD-Сплошная
 62
     7
370
    25
100
AcDbLine
 10
88.6326859291
 20
151.2322969282
 30
0.0
 11
88.6326859291
 21
159.0381943916
 31
0.0
  0
LWPOLYLINE
  5
13B
330
1F
100
AcDbEntity
  8
0
  6
SLD-Сплошная
 62
     7
370
    25
100
AcDbPolyline
 90
       36
 70
   128
 43
0.0
 10
74.4767609988
 20
151.5676380563
 10
74.5679432398
 20
153.4755245008
 10
74.8407558171
 20
155.3680497655
 10
75.293002204
 20
157.2299763497
 10
75.9210411788
 20
159.0463131154
 10
76.7198161408
 20
160.8024359869
 10
77.6828958237
 20
162.4842056954
 10
78.8025260762
 20
164.0780816201
 10
80.0696922938
 20
165.5712308093
 10
81.4741919993
 20
166.9516313036
 10
83.0047169867
 20
168.2081689299
 10
84.6489443689
 20
169.3307267861
 10
86.3936357938
 20
170.3102666964
 10
88.2247440318
 20
171.1389019814
 10
90.1275260762
 20
171.8099609569
 10
92.0866618447
 20
172.3180406508
 10
94.086377528
 20
172.6590503039
 10
96.1105725914
 20
172.8302443073
 10
98.1429494063
 20
172.8302443073
 10
100.1671444696
 20
172.6590503039
 10
102.1668601529
 20
172.3180406508
 10
104.1259959214
 20
171.8099609569
 10
106.0287779658
 20
171.1389019814
 10
107.8598862038
 20
170.3102666964
 10
109.6045776287
 20
169.3307267861
 10
111.2488050109
 20
168.2081689299
 10
112.7793299984
 20
166.9516313036
 10
114.1838297038
 20
165.5712308093
 10
115.4509959214
 20
164.0780816201
 10
116.5706261739
 20
162.4842056954
 10
117.5337058568
 20
160.8024359869
 10
118.3324808188
 20
159.0463131154
 10
118.9605197936
 20
157.2299763497
 10
119.4127661806
 20
155.3680497655
 10
119.6855787578
 20
153.4755245008
 10
119.7767609988
 20
151.5676380563
  0
LWPOLYLINE
  5
13C
330
1F
100
AcDbEntity
  8
0
  6
SLD-Сплошная
 62
     7
370
    25
100
AcDbPolyline
 90
        3
 70
   128
 43
0.0
 10
95.3767609988
 20
149.7025703797
 10
95.073119681
 20
149.6171362433
 10
94.8767933739
 20
149.5478581173
  0
LWPOLYLINE
  5
13D
330
1F
100
AcDbEntity
  8
0
  6
SLD-Сплошная
 62
     7
370
    25
100
AcDbPolyline
 90
        3
 70
   128
 43
0.0
 10
99.3767609988
 20
149.547845562
 10
99.1804023166
 20
149.6171362433
 10
98.8767609988
 20
149.7025703797
  0
LWPOLYLINE
  5
13E
330
1F
100
AcDbEntity
  8
0
  6
SLD-Сплошная
 62
     7
370
    25
100
AcDbPolyline
 90
        3
 70
   128
 43
0.0
 10
105.643805718
 20
150.7368795836
 10
105.6767324484
 20
150.8899704135
 10
105.9137800791
 20
151.4490220271
  0
LINE
  5
13F
330
1F
100
AcDbEntity
  8
0
  6
SLD-Сплошная
 62
     7
370
    25
100
AcDbLine
 10
71.8767609988
 20
148.3868507234
 30
0.0
 11
71.8767609988
 21
146.6767500068
 31
0.0
  0
LWPOLYLINE
  5
140
330
1F
100
AcDbEntity
  8
0
  6
SLD-Сплошная
 62
     7
370
    25
100
AcDbPolyline
 90
       38
 70
   128
 43
0.0
 10
71.8767609988
 20
148.3868507234
 10
71.9677244131
 20
146.3746403123
 10
72.2399592625
 20
144.3769279234
 10
72.6915040887
 20
142.4081071201
 10
73.3191055009
 20
140.4823633015
 10
74.1182416165
 20
138.6135714958
 10
75.0831546415
 20
136.815196391
 10
76.2068923554
 20
135.1001953208
 10
77.4813582023
 20
133.4809249073
 10
78.8973696265
 20
131.9690520308
 10
80.4447242332
 20
130.5754697701
 10
82.1122732971
 20
129.3102189173
 10
83.888002089
 20
128.1824156338
 10
85.7591164422
 20
127.2001857681
 10
87.7121349349
 20
126.370606309
 10
89.7329860241
 20
125.6996543953
 10
91.8071094314
 20
125.192164251
 10
93.9195610502
 20
124.8517923543
 10
96.0551206181
 20
124.6809910925
 10
98.1984013795
 20
124.6809910925
 10
100.3339609474
 20
124.8517923543
 10
102.4464125662
 20
125.192164251
 10
104.5205359735
 20
125.6996543953
 10
106.5413870628
 20
126.370606309
 10
108.4944055555
 20
127.2001857681
 10
110.3655199086
 20
128.1824156338
 10
112.1412487005
 20
129.3102189173
 10
113.8087977644
 20
130.5754697701
 10
115.3561523712
 20
131.9690520308
 10
116.7721637954
 20
133.4809249073
 10
118.0466296422
 20
135.1001953208
 10
119.1703673561
 20
136.815196391
 10
120.1352803811
 20
138.6135714958
 10
120.9344164967
 20
140.4823633015
 10
121.5620179089
 20
142.4081071201
 10
122.0135627351
 20
144.3769279234
 10
122.2857975845
 20
146.3746403123
 10
122.3767609988
 20
148.3868507234
  0
LINE
  5
141
330
1F
100
AcDbEntity
  8
0
  6
SLD-Сплошная
 62
     7
370
    25
100
AcDbLine
 10
122.3767609988
 20
148.3868507234
 30
0.0
 11
122.3767609988
 21
146.6767500068
 31
0.0
  0
LWPOLYLINE
  5
142
330
1F
100
AcDbEntity
  8
0
  6
SLD-Сплошная
 62
     7
370
    25
100
AcDbPolyline
 90
       38
 70
   128
 43
0.0
 10
122.3767609988
 20
146.6767500068
 10
122.2857975845
 20
144.6645395957
 10
122.0135627351
 20
142.6668272067
 10
121.5620179089
 20
140.6980064035
 10
120.9344164967
 20
138.7722625848
 10
120.1352803811
 20
136.9034707792
 10
119.1703673561
 20
135.1050956744
 10
118.0466296422
 20
133.3900946042
 10
116.7721637954
 20
131.7708241906
 10
115.3561523712
 20
130.2589513141
 10
113.8087977644
 20
128.8653690534
 10
112.1412487005
 20
127.6001182007
 10
110.3655199086
 20
126.4723149172
 10
108.4944055555
 20
125.4900850515
 10
106.5413870628
 20
124.6605055923
 10
104.5205359735
 20
123.9895536787
 10
102.4464125662
 20
123.4820635344
 10
100.3339609474
 20
123.1416916377
 10
98.1984013795
 20
122.9708903758
 10
96.0551206181
 20
122.9708903758
 10
93.9195610502
 20
123.1416916377
 10
91.8071094314
 20
123.4820635344
 10
89.7329860241
 20
123.9895536787
 10
87.7121349349
 20
124.6605055923
 10
85.7591164422
 20
125.4900850515
 10
83.888002089
 20
126.4723149172
 10
82.1122732971
 20
127.6001182007
 10
80.4447242332
 20
128.8653690534
 10
78.8973696265
 20
130.2589513141
 10
77.4813582023
 20
131.7708241906
 10
76.2068923554
 20
133.3900946042
 10
75.0831546415
 20
135.1050956744
 10
74.1182416165
 20
136.9034707792
 10
73.3191055009
 20
138.7722625848
 10
72.6915040887
 20
140.6980064035
 10
72.2399592625
 20
142.6668272067
 10
71.9677244131
 20
144.6645395957
 10
71.8767609988
 20
146.6767500068
  0
ARC
  5
143
330
1F
100
AcDbEntity
  8
0
  6
SLD-Сплошная
 62
     7
370
    25
100
AcDbCircle
 10
99.0451269392
 20
148.1479091091
 30
0.0
 40
23.33285754010231
100
AcDbArc
 50
0.5867513363
 51
55.0129629364
  0
ARC
  5
144
330
1F
100
AcDbEntity
  8
0
  6
SLD-Сплошная
 62
     7
370
    25
100
AcDbCircle
 10
95.1204861994
 20
148.1942579124
 30
0.0
 40
23.2445230794532
100
AcDbArc
 50
124.8750161167
 51
179.5252696106
  0
LINE
  5
145
330
1F
100
AcDbEntity
  8
0
  6
SLD-Сплошная
 62
     7
370
    25
100
AcDbLine
 10
110.1766823744
 20
159.0975835079
 30
0.0
 11
110.1766823744
 21
158.4135432213
 31
0.0
  0
LINE
  5
146
330
1F
100
AcDbEntity
  8
0
  6
SLD-Сплошная
 62
     7
370
    25
100
AcDbLine
 10
105.9137800791
 20
151.4490220271
 30
0.0
 11
110.1766823744
 21
158.4135432213
 31
0.0
  0
LWPOLYLINE
  5
147
330
1F
100
AcDbEntity
  8
0
  6
SLD-Сплошная
 62
     7
370
    25
100
AcDbPolyline
 90
        3
 70
   128
 43
0.0
 10
108.7699504506
 20
155.526365515
 10
108.5802331275
 20
155.5540685648
 10
108.4365458097
 20
155.5705932435
  0
LINE
  5
148
330
1F
100
AcDbEntity
  8
0
  6
SLD-Сплошная
 62
     7
370
    25
100
AcDbLine
 10
108.7699504506
 20
155.526365515
 30
0.0
 11
107.9639068729
 21
154.2354833768
 31
0.0
  0
LINE
  5
149
330
1F
100
AcDbEntity
  8
0
  6
SLD-Сплошная
 62
     7
370
    25
100
AcDbLine
 10
107.9639068729
 20
154.2354833768
 30
0.0
 11
107.6146477973
 21
154.2278164848
 31
0.0
  0
LINE
  5
14A
330
1F
100
AcDbEntity
  8
0
  6
SLD-Сплошная
 62
     7
370
    25
100
AcDbLine
 10
111.2165164851
 20
152.3151792021
 30
0.0
 11
111.1340747062
 21
152.4585981397
 31
0.0
  0
LINE
  5
14B
330
1F
100
AcDbEntity
  8
0
  6
SLD-Сплошная
 62
     7
370
    25
100
AcDbLine
 10
111.1340747062
 20
152.4585981397
 30
0.0
 11
111.926006132
 21
153.7782927634
 31
0.0
  0
LINE
  5
14C
330
1F
100
AcDbEntity
  8
0
  6
SLD-Сплошная
 62
     7
370
    25
100
AcDbLine
 10
112.0330086669
 20
153.6491241793
 30
0.0
 11
111.926006132
 21
153.7782927634
 31
0.0
  0
LWPOLYLINE
  5
14D
330
1F
100
AcDbEntity
  8
0
  6
SLD-Сплошная
 62
     7
370
    25
100
AcDbPolyline
 90
        3
 70
   128
 43
0.0
 10
84.4267609988
 20
155.2424032432
 10
84.2501572975
 20
155.1716798634
 10
84.1326859291
 20
155.1205501728
  0
LINE
  5
14E
330
1F
100
AcDbEntity
  8
0
  6
SLD-Сплошная
 62
     7
370
    25
100
AcDbLine
 10
84.4267609988
 20
155.2424032432
 30
0.0
 11
84.4267609988
 21
153.7225391915
 31
0.0
  0
LINE
  5
14F
330
1F
100
AcDbEntity
  8
0
  6
SLD-Сплошная
 62
     7
370
    25
100
AcDbLine
 10
84.4267609988
 20
153.7225391915
 30
0.0
 11
84.1326859291
 21
153.5358326925
 31
0.0
  0
LINE
  5
150
330
1F
100
AcDbEntity
  8
0
  6
SLD-Сплошная
 62
     7
370
    25
100
AcDbLine
 10
88.6326859291
 20
153.5274812471
 30
0.0
 11
88.3267609988
 21
153.7225391915
 31
0.0
  0
LINE
  5
151
330
1F
100
AcDbEntity
  8
0
  6
SLD-Сплошная
 62
     7
370
    25
100
AcDbLine
 10
88.3267609988
 20
153.7225391915
 30
0.0
 11
88.3267609988
 21
155.2424032432
 31
0.0
  0
ARC
  5
152
330
1F
100
AcDbEntity
  8
0
  6
SLD-Сплошная
 62
     7
370
    25
100
AcDbCircle
 10
86.4201451137
 20
150.2253520869
 30
0.0
 40
5.367120870538842
100
AcDbArc
 50
64.7087584129
 51
69.1918473786
  0
LINE
  5
153
330
1F
100
AcDbEntity
  8
0
  6
SLD-Сплошная
 62
     7
370
    25
100
AcDbLine
 10
111.1340747062
 20
152.1804898575
 30
0.0
 11
111.1340747062
 21
152.4585981397
 31
0.0
  0
LINE
  5
154
330
1F
100
AcDbEntity
  8
0
  6
SLD-Сплошная
 62
     7
370
    25
100
AcDbLine
 10
107.9639068729
 20
153.9276652478
 30
0.0
 11
107.9639068729
 21
154.2354833768
 31
0.0
  0
LINE
  5
155
330
1F
100
AcDbEntity
  8
0
  6
SLD-Сплошная
 62
     7
370
    25
100
AcDbLine
 10
107.415104098
 20
153.9018117521
 30
0.0
 11
107.9639068729
 21
153.9276652478
 31
0.0
  0
LINE
  5
156
330
1F
100
AcDbEntity
  8
0
  6
SLD-Сплошная
 62
     7
370
    25
100
AcDbLine
 10
88.3267609988
 20
153.4147210625
 30
0.0
 11
88.3267609988
 21
153.7225391915
 31
0.0
  0
LINE
  5
157
330
1F
100
AcDbEntity
  8
0
  6
SLD-Сплошная
 62
     7
370
    25
100
AcDbLine
 10
84.4267609988
 20
153.7225391915
 30
0.0
 11
84.4267609988
 21
153.4147210625
 31
0.0
  0
LINE
  5
158
330
1F
100
AcDbEntity
  8
0
  6
SLD-Сплошная
 62
     7
370
    25
100
AcDbLine
 10
88.3267609988
 20
153.4147210625
 30
0.0
 11
88.6326859291
 21
153.2196631181
 31
0.0
  0
LINE
  5
159
330
1F
100
AcDbEntity
  8
0
  6
SLD-Сплошная
 62
     7
370
    25
100
AcDbLine
 10
84.1326859291
 20
153.2280145635
 30
0.0
 11
84.4267609988
 21
153.4147210625
 31
0.0
  0
ARC
  5
15A
330
1F
100
AcDbEntity
  8
0
  6
SLD-Сплошная
 62
     7
370
    25
100
AcDbCircle
 10
107.4860079796
 20
149.6910326796
 30
0.0
 40
2.008406480501256
100
AcDbArc
 50
357.9860575785
 51
148.7108269053
  0
LINE
  5
15B
330
1F
100
AcDbEntity
  8
0
  6
SLD-Сплошная
 62
     7
370
    25
100
AcDbLine
 10
105.7697101912
 20
150.7341139288
 30
0.0
 11
105.6802083456
 21
150.5704196402
 31
0.0
  0
ARC
  5
15C
330
1F
100
AcDbEntity
  8
0
  6
SLD-Сплошная
 62
     7
370
    25
100
AcDbCircle
 10
107.9223512496
 20
150.1371104173
 30
0.0
 40
3.790782609559949
100
AcDbArc
 50
32.0866746398
 51
89.3718949975
  0
ARC
  5
15D
330
1F
100
AcDbEntity
  8
0
  6
SLD-Сплошная
 62
     7
370
    25
100
AcDbCircle
 10
86.376556803
 20
149.5792563207
 30
0.0
 40
2.024259761623438
100
AcDbArc
 50
16.4766522902
 51
163.1320899901
  0
ARC
  5
15E
330
1F
100
AcDbEntity
  8
0
  6
SLD-Сплошная
 62
     7
370
    25
100
AcDbCircle
 10
86.3767609988
 20
149.9777697899
 30
0.0
 40
3.951598923234366
100
AcDbArc
 50
60.4310144086
 51
119.5689855914
  0
LINE
  5
15F
330
1F
100
AcDbEntity
  8
0
  6
SLD-Сплошная
 62
     7
370
    25
100
AcDbLine
 10
110.1766823744
 20
158.4135432213
 30
0.0
 11
113.7628544706
 21
156.4752616154
 31
0.0
  0
SPLINE
  5
160
330
1F
100
AcDbEntity
  8
0
  6
SLD-Сплошная
 62
     7
370
    25
100
AcDbSpline
210
0.0
220
0.0
230
1.0
 70
     8
 71
     3
 72
    13
 73
     9
 74
     0
 42
0.00000001
 43
0.00000001
 40
0.0
 40
0.0
 40
0.0
 40
0.0
 40
0.1384512380865805
 40
0.2803191834055926
 40
0.4303030292146734
 40
0.5923976542904924
 40
0.887553640455451
 40
1.0
 40
1.0
 40
1.0
 40
1.0
 10
86.37676099881074
 20
151.1518601658408
 30
0.0
 10
86.49265618291138
 20
151.1440722949052
 30
0.0
 10
86.72730661881012
 20
151.1283043635288
 30
0.0
 10
87.06332621206707
 20
151.0035911128128
 30
0.0
 10
87.37405192814343
 20
150.8108721980793
 30
0.0
 10
87.7151669823843
 20
150.4899257282341
 30
0.0
 10
87.9564126317592
 20
150.1228991426472
 30
0.0
 10
88.03922003544514
 20
149.8954915618203
 30
0.0
 10
88.06206433746112
 20
149.8327560185488
 30
0.0
  0
SPLINE
  5
161
330
1F
100
AcDbEntity
  8
0
  6
SLD-Сплошная
 62
     7
370
    25
100
AcDbSpline
210
0.0
220
0.0
230
1.0
 70
     8
 71
     3
 72
    13
 73
     9
 74
     0
 42
0.00000001
 43
0.00000001
 40
0.0
 40
0.0
 40
0.0
 40
0.0
 40
0.0937843437245345
 40
0.3943784396116926
 40
0.5601132703526248
 40
0.7134462230249243
 40
0.8584700036747074
 40
1.0
 40
1.0
 40
1.0
 40
1.0
 10
84.70509737848813
 20
149.8673408163319
 30
0.0
 10
84.72400388372084
 20
149.9186914554399
 30
0.0
 10
84.80350881744495
 20
150.1346292561453
 30
0.0
 10
85.03798580198686
 20
150.4890291894245
 30
0.0
 10
85.3781694946799
 20
150.8099396432141
 30
0.0
 10
85.68928958112492
 20
151.0031905238976
 30
0.0
 10
86.02571290970614
 20
151.1282367033886
 30
0.0
 10
86.26069998958833
 20
151.1440499455928
 30
0.0
 10
86.37676099881074
 20
151.1518601658408
 30
0.0
  0
SPLINE
  5
162
330
1F
100
AcDbEntity
  8
0
  6
SLD-Сплошная
 62
     7
370
    25
100
AcDbSpline
210
0.0
220
0.0
230
1.0
 70
     8
 71
     3
 72
    12
 73
     8
 74
     0
 42
0.00000001
 43
0.00000001
 40
0.0
 40
0.0
 40
0.0
 40
0.0
 40
0.1917937126530007
 40
0.3883205210458029
 40
0.5960901229883403
 40
0.8206365436201851
 40
1.0
 40
1.0
 40
1.0
 40
1.0
 10
108.5017609988108
 20
150.994491491545
 30
0.0
 10
108.5991191726614
 20
150.933018661271
 30
0.0
 10
108.7962381307065
 20
150.8085559708526
 30
0.0
 10
109.0410138011415
 20
150.5374454239444
 30
0.0
 10
109.2352640568509
 20
150.2182367827791
 30
0.0
 10
109.3764089721188
 20
149.8843662897334
 30
0.0
 10
109.4072742237179
 20
149.6715199189639
 30
0.0
 10
109.4209804946559
 20
149.5770016540937
 30
0.0
  0
SPLINE
  5
163
330
1F
100
AcDbEntity
  8
0
  6
SLD-Сплошная
 62
     7
370
    25
100
AcDbSpline
210
0.0
220
0.0
230
1.0
 70
     8
 71
     3
 72
    14
 73
    10
 74
     0
 42
0.00000001
 43
0.00000001
 40
0.0
 40
0.0
 40
0.0
 40
0.0
 40
0.007871121958759
 40
0.1598099762516124
 40
0.4385031976863966
 40
0.5921628154737018
 40
0.7343241390560342
 40
0.8687816855180033
 40
1.0
 40
1.0
 40
1.0
 40
1.0
 10
106.5230207151734
 20
150.514398961629
 30
0.0
 10
106.5241240971405
 20
150.5173396822892
 30
0.0
 10
106.5465264238833
 20
150.5770461004261
 30
0.0
 10
106.7559268924739
 20
150.7925144499585
 30
0.0
 10
107.091373787403
 20
151.0209975972656
 30
0.0
 10
107.5099282137145
 20
151.1542649839232
 30
0.0
 10
107.8500619488563
 20
151.1828840466013
 30
0.0
 10
108.1888149934574
 20
151.138085248127
 30
0.0
 10
108.3982970280879
 20
151.0419654326494
 30
0.0
 10
108.5017609988108
 20
150.994491491545
 30
0.0
  0
LINE
  5
164
330
1F
100
AcDbEntity
  8
0
  6
SLD-Сплошная
 62
     7
370
    25
100
AcDbLine
 10
84.1326859291
 20
158.3541541049
 30
0.0
 11
88.6326859291
 21
158.3541541049
 31
0.0
  0
LINE
  5
165
330
1F
100
AcDbEntity
  8
0
  6
SLD-Сплошная
 62
     7
370
    25
100
AcDbLine
 10
108.7699504506
 20
155.4966781733
 30
0.0
 11
108.9008507093
 21
155.7105366113
 31
0.0
  0
LINE
  5
166
330
1F
100
AcDbEntity
  8
0
  6
SLD-Сплошная
 62
     7
370
    25
100
AcDbLine
 10
108.7699504506
 20
154.1754433257
 30
0.0
 11
108.7699504506
 21
155.526365515
 31
0.0
  0
ELLIPSE
  5
167
330
1F
100
AcDbEntity
  8
0
  6
SLD-Сплошная
 62
     7
370
    25
100
AcDbEllipse
 10
97.1267609988
 20
144.4755359526
 30
0.0
 11
8.526512829121202E-14
 21
-30.06302207244443
 31
0.0
210
0.0
220
0.0
230
1.0
 40
0.9396926208
 41
4.712388980384723
 42
6.046123817484477
  0
LWPOLYLINE
  5
168
330
1F
100
AcDbEntity
  8
0
  6
SLD-Сплошная
 62
     7
370
    25
100
AcDbPolyline
 90
       57
 70
   128
 43
0.0
 10
75.0951888535
 20
163.29290523
 10
73.7485232959
 20
161.5797091881
 10
72.5523504275
 20
159.7705783528
 10
71.5143703698
 20
157.8771586389
 10
70.6412649102
 20
155.9116385539
 10
69.9386544888
 20
153.8866707367
 10
69.4110620184
 20
151.8152905093
 10
69.0618837693
 20
149.710831964
 10
68.8933675059
 20
147.5868421282
 10
68.9065980177
 20
145.4569937579
 10
69.1014901359
 20
143.3349973224
 10
69.4767892819
 20
141.2345127456
 10
70.0300795431
 20
139.1690614734
 10
70.757799225
 20
137.1519394317
 10
71.655263779
 20
135.1961314366
 10
72.7166959581
 20
133.3142276076
 10
73.9352630068
 20
131.518342321
 10
75.3031206454
 20
129.820036226
 10
76.8114635664
 20
128.2302418255
 10
78.4505821165
 20
126.7591931003
 10
80.2099248007
 20
125.4163596298
 10
82.0781662053
 20
124.2103856336
 10
84.0432799032
 20
123.1490343259
 10
86.0926158713
 20
122.2391379418
 10
88.2129819229
 20
121.4865537556
 10
90.3907286291
 20
120.8961263763
 10
92.6118371848
 20
120.4716565609
 10
94.8620096519
 20
120.2158767484
 10
97.1267609988
 20
120.1304334696
 10
99.3915123458
 20
120.2158767484
 10
101.6416848128
 20
120.4716565609
 10
103.8627933685
 20
120.8961263763
 10
106.0405400747
 20
121.4865537556
 10
108.1609061263
 20
122.2391379418
 10
110.2102420944
 20
123.1490343259
 10
112.1753557923
 20
124.2103856336
 10
114.043597197
 20
125.4163596298
 10
115.8029398811
 20
126.7591931003
 10
117.4420584312
 20
128.2302418255
 10
118.9504013522
 20
129.820036226
 10
120.3182589908
 20
131.518342321
 10
121.5368260395
 20
133.3142276076
 10
122.5982582186
 20
135.1961314366
 10
123.4957227726
 20
137.1519394317
 10
124.2234424545
 20
139.1690614734
 10
124.7767327157
 20
141.2345127456
 10
125.1520318617
 20
143.3349973224
 10
125.3469239799
 20
145.4569937579
 10
125.3601544917
 20
147.5868421282
 10
125.1916382283
 20
149.710831964
 10
124.8424599792
 20
151.8152905093
 10
124.3148675089
 20
153.8866707367
 10
123.6122570874
 20
155.9116385539
 10
122.7391516278
 20
157.8771586389
 10
121.7011715701
 20
159.7705783528
 10
120.5049987017
 20
161.5797091881
 10
119.1583331442
 20
163.29290523
  0
ELLIPSE
  5
169
330
1F
100
AcDbEntity
  8
0
  6
SLD-Сплошная
 62
     7
370
    25
100
AcDbEllipse
 10
97.1267609988
 20
144.4755359526
 30
0.0
 11
8.526512829121202E-14
 21
-30.06302207244443
 31
0.0
210
0.0
220
0.0
230
1.0
 40
0.9396926208
 41
0.2370614896951045
 42
1.570796326794918
  0
LINE
  5
16A
330
1F
100
AcDbEntity
  8
0
  6
SLD-Сплошная
 62
     7
370
    25
100
AcDbLine
 10
103.7611977217
 20
119.7442071624
 30
0.0
 11
103.7611977217
 21
115.2533083106
 31
0.0
  0
ARC
  5
16B
330
1F
100
AcDbEntity
  8
0
  6
SLD-Сплошная
 62
     7
370
    25
100
AcDbCircle
 10
97.1267609988
 20
149.0073868923
 30
0.0
 40
30.00582341034885
100
AcDbArc
 50
257.2260584455
 51
282.7739415545
  0
LINE
  5
16C
330
1F
100
AcDbEntity
  8
0
  6
SLD-Сплошная
 62
     7
370
    25
100
AcDbLine
 10
90.4923242759
 20
119.7442071624
 30
0.0
 11
90.4923242759
 21
115.2533083106
 31
0.0
  0
LINE
  5
16D
330
1F
100
AcDbEntity
  8
0
  6
SLD-Сплошная
 62
     7
370
    25
100
AcDbLine
 10
116.7720532156
 20
163.29290523
 30
0.0
 11
119.1583331442
 21
163.29290523
 31
0.0
  0
LINE
  5
16E
330
1F
100
AcDbEntity
  8
0
  6
SLD-Сплошная
 62
     7
370
    25
100
AcDbLine
 10
75.0951888535
 20
163.29290523
 30
0.0
 11
77.481468782
 21
163.29290523
 31
0.0
  0
ARC
  5
16F
330
1F
100
AcDbEntity
  8
0
  6
SLD-Сплошная
 62
     7
370
    25
100
AcDbCircle
 10
106.1701620887
 20
146.932565585
 30
0.0
 40
2.8271838655156
100
AcDbArc
 50
46.3565420928
 51
91.2917784316
  0
ARC
  5
170
330
1F
100
AcDbEntity
  8
0
  6
SLD-Сплошная
 62
     7
370
    25
100
AcDbCircle
 10
86.3766271941
 20
144.3748302726
 30
0.0
 40
4.897998579802662
100
AcDbArc
 50
81.7442656602
 51
98.1582736689
  0
LWPOLYLINE
  5
171
330
1F
100
AcDbEntity
  8
0
  6
SLD-Сплошная
 62
     7
370
    25
100
AcDbPolyline
 90
        3
 70
   128
 43
0.0
 10
95.1767609988
 20
165.3440989167
 10
95.0101753458
 20
165.2775824728
 10
94.8767609988
 20
165.2195780125
  0
LINE
  5
172
330
1F
100
AcDbEntity
  8
0
  6
SLD-Сплошная
 62
     7
370
    25
100
AcDbLine
 10
95.1767609988
 20
165.3440989167
 30
0.0
 11
95.1767609988
 21
163.824234865
 31
0.0
  0
LINE
  5
173
330
1F
100
AcDbEntity
  8
0
  6
SLD-Сплошная
 62
     7
370
    25
100
AcDbLine
 10
99.0767609988
 20
163.824234865
 30
0.0
 11
99.3767609988
 21
163.6333612338
 31
0.0
  0
LINE
  5
174
330
1F
100
AcDbEntity
  8
0
  6
SLD-Сплошная
 62
     7
370
    25
100
AcDbLine
 10
94.8767609988
 20
163.6333612338
 30
0.0
 11
95.1767609988
 21
163.824234865
 31
0.0
  0
LINE
  5
175
330
1F
100
AcDbEntity
  8
0
  6
SLD-Сплошная
 62
     7
370
    25
100
AcDbLine
 10
99.0767609988
 20
163.824234865
 30
0.0
 11
99.0767609988
 21
165.3440989167
 31
0.0
  0
LWPOLYLINE
  5
176
330
1F
100
AcDbEntity
  8
0
  6
SLD-Сплошная
 62
     7
370
    25
100
AcDbPolyline
 90
        3
 70
   128
 43
0.0
 10
99.3767609988
 20
165.2195780125
 10
99.2389275508
 20
165.2794306427
 10
99.0767609988
 20
165.3440989167
  0
LINE
  5
177
330
1F
100
AcDbEntity
  8
0
  6
SLD-Сплошная
 62
     7
370
    25
100
AcDbLine
 10
95.1767609988
 20
163.824234865
 30
0.0
 11
95.1767609988
 21
163.516416736
 31
0.0
  0
LINE
  5
178
330
1F
100
AcDbEntity
  8
0
  6
SLD-Сплошная
 62
     7
370
    25
100
AcDbLine
 10
99.0767609988
 20
163.516416736
 30
0.0
 11
99.3767609988
 21
163.3255431048
 31
0.0
  0
LINE
  5
179
330
1F
100
AcDbEntity
  8
0
  6
SLD-Сплошная
 62
     7
370
    25
100
AcDbLine
 10
94.8767609988
 20
163.3255431048
 30
0.0
 11
95.1767609988
 21
163.516416736
 31
0.0
  0
LINE
  5
17A
330
1F
100
AcDbEntity
  8
0
  6
SLD-Сплошная
 62
     7
370
    25
100
AcDbLine
 10
99.0767609988
 20
163.516416736
 30
0.0
 11
99.0767609988
 21
163.824234865
 31
0.0
  0
ARC
  5
17B
330
1F
100
AcDbEntity
  8
0
  6
SLD-Сплошная
 62
     7
370
    25
100
AcDbCircle
 10
109.2483455068
 20
151.5076467228
 30
0.0
 40
4.440409728745061
100
AcDbArc
 50
42.0841541452
 51
63.1807071397
  0
LWPOLYLINE
  5
17C
330
1F
100
AcDbEntity
  8
0
  6
SLD-Сплошная
 62
     7
370
    25
100
AcDbPolyline
 90
        6
 70
   128
 43
0.0
 10
109.7607062381
 20
155.7879928511
 10
109.7825917995
 20
155.8158865603
 10
109.9829979834
 20
155.8875958705
 10
110.3208943269
 20
155.8492370229
 10
110.7596645182
 20
155.704966794
 10
111.2517609988
 20
155.4704191015
  0
ARC
  5
17D
330
1F
100
AcDbEntity
  8
0
  6
SLD-Сплошная
 62
     7
370
    25
100
AcDbCircle
 10
108.7151662721
 20
151.846412886
 30
0.0
 40
4.780085715759494
100
AcDbArc
 50
57.9500193957
 51
85.6879769117
  0
ARC
  5
17E
330
1F
100
AcDbEntity
  8
0
  6
SLD-Сплошная
 62
     7
370
    25
100
AcDbCircle
 10
111.4614166583
 20
157.487775042
 30
0.0
 40
3.110997093257138
100
AcDbArc
 50
208.027187691
 51
228.0774174581
  0
ARC
  5
17F
330
1F
100
AcDbEntity
  8
0
  6
SLD-Сплошная
 62
     7
370
    25
100
AcDbCircle
 10
106.7268580938
 20
147.5026645535
 30
0.0
 40
9.537057617401462
100
AcDbArc
 50
50.5929541711
 51
61.6761409942
  0
LWPOLYLINE
  5
180
330
1F
100
AcDbEntity
  8
0
  6
SLD-Сплошная
 62
     7
370
    25
100
AcDbPolyline
 90
        6
 70
   128
 43
0.0
 10
86.3767609988
 20
156.3202099427
 10
86.9449850699
 20
156.2877796519
 10
87.451633246
 20
156.1940031046
 10
87.8418023358
 20
156.0490424449
 10
88.0732114642
 20
155.8686064095
 10
88.1267609988
 20
155.7216746919
  0
LWPOLYLINE
  5
181
330
1F
100
AcDbEntity
  8
0
  6
SLD-Сплошная
 62
     7
370
    25
100
AcDbPolyline
 90
        6
 70
   128
 43
0.0
 10
84.6267609988
 20
155.7216746919
 10
84.6803105334
 20
155.8686064095
 10
84.9117196619
 20
156.0490424449
 10
85.3018887516
 20
156.1940031046
 10
85.8085369277
 20
156.2877796519
 10
86.3767609988
 20
156.3202099427
  0
ARC
  5
182
330
1F
100
AcDbEntity
  8
0
  6
SLD-Сплошная
 62
     7
370
    25
100
AcDbCircle
 10
97.1267609988
 20
122.0982492276
 30
0.0
 40
7.03969208663419
100
AcDbArc
 50
199.535788944
 51
340.464211056
  0
ELLIPSE
  5
183
330
1F
100
AcDbEntity
  8
0
  6
SLD-Сплошная
 62
     7
370
    25
100
AcDbEllipse
 10
97.1267609988
 20
117.3656071988
 30
0.0
 11
2.842170943040400E-14
 21
-7.369431074395663
 31
0.0
210
0.0
220
0.0
230
1.0
 40
0.9396926208
 41
5.003096202935982
 42
7.563274411423183
  0
ARC
  5
184
330
1F
100
AcDbEntity
  8
0
  6
SLD-Сплошная
 62
     7
370
    25
100
AcDbCircle
 10
86.2013337118
 20
150.4195833753
 30
0.0
 40
6.330582853167712
100
AcDbArc
 50
88.4120688041
 51
109.0728753119
  0
LWPOLYLINE
  5
185
330
1F
100
AcDbEntity
  8
0
  6
SLD-Сплошная
 62
     7
370
    25
100
AcDbPolyline
 90
        3
 70
   128
 43
0.0
 10
84.4267609988
 20
154.941936272
 10
84.6134052419
 20
154.8915743668
 10
84.6267609988
 20
154.8882746922
  0
LWPOLYLINE
  5
186
330
1F
100
AcDbEntity
  8
0
  6
SLD-Сплошная
 62
     7
370
    25
100
AcDbPolyline
 90
        3
 70
   128
 43
0.0
 10
88.1267609988
 20
154.8882746922
 10
88.1401167557
 20
154.8915743668
 10
88.3267609988
 20
154.941936272
  0
ARC
  5
187
330
1F
100
AcDbEntity
  8
0
  6
SLD-Сплошная
 62
     7
370
    25
100
AcDbCircle
 10
86.5539589223
 20
150.4393041703
 30
0.0
 40
6.310919122794546
100
AcDbArc
 50
70.7685010175
 51
91.6089617769
  0
ARC
  5
188
330
1F
100
AcDbEntity
  8
0
  6
SLD-Сплошная
 62
     7
370
    25
100
AcDbCircle
 10
97.1267609988
 20
159.6478439784
 30
0.0
 40
2.04254470343302
100
AcDbArc
 50
24.1756699222
 51
155.8243300778
  0
ARC
  5
189
330
1F
100
AcDbEntity
  8
0
  6
SLD-Сплошная
 62
     7
370
    25
100
AcDbCircle
 10
97.1267609988
 20
160.0794654634
 30
0.0
 40
3.951598923234408
100
AcDbArc
 50
60.4310144086
 51
119.5689855914
  0
SPLINE
  5
18A
330
1F
100
AcDbEntity
  8
0
  6
SLD-Сплошная
 62
     7
370
    25
100
AcDbSpline
210
0.0
220
0.0
230
1.0
 70
     8
 71
     3
 72
    12
 73
     8
 74
     0
 42
0.00000001
 43
0.00000001
 40
0.0
 40
0.0
 40
0.0
 40
0.0
 40
0.1618331708833882
 40
0.3276600696167132
 40
0.5029734989801258
 40
0.692443001179658
 40
1.0
 40
1.0
 40
1.0
 40
1.0
 10
97.12676099881084
 20
161.2535558392893
 30
0.0
 10
97.2426288456383
 20
161.2457750435173
 30
0.0
 10
97.47722393235993
 20
161.2300214370692
 30
0.0
 10
97.8136746336739
 20
161.1051966112159
 30
0.0
 10
98.12261514422761
 20
160.9129397257765
 30
0.0
 10
98.45455745459456
 20
160.6066416276217
 30
0.0
 10
98.60509758910365
 20
160.34485138337
 30
0.0
 10
98.69825091569008
 20
160.1828571603713
 30
0.0
  0
SPLINE
  5
18B
330
1F
100
AcDbEntity
  8
0
  6
SLD-Сплошная
 62
     7
370
    25
100
AcDbSpline
210
0.0
220
0.0
230
1.0
 70
     8
 71
     3
 72
    12
 73
     8
 74
     0
 42
0.00000001
 43
0.00000001
 40
0.0
 40
0.0
 40
0.0
 40
0.0
 40
0.3121240418266837
 40
0.50036867008185
 40
0.6745270201765449
 40
0.8392476619060503
 40
1.0
 40
1.0
 40
1.0
 40
1.0
 10
95.54695057305774
 20
160.1703640448979
 30
0.0
 10
95.64207556644797
 20
160.3361346416318
 30
0.0
 10
95.79457124142274
 20
160.6018828760228
 30
0.0
 10
96.12962559450895
 20
160.9120581769657
 30
0.0
 10
96.43893652766361
 20
161.1047836684598
 30
0.0
 10
96.77579669163148
 20
161.229956707621
 30
0.0
 10
97.01072768896951
 20
161.2457536631111
 30
0.0
 10
97.12676099881084
 20
161.2535558392893
 30
0.0
  0
LINE
  5
18C
330
1F
100
AcDbEntity
  8
0
  6
SLD-Сплошная
 62
     7
370
    25
100
AcDbLine
 10
94.8767609988
 20
169.0196653508
 30
0.0
 11
99.3767609988
 21
169.0196653508
 31
0.0
  0
SPLINE
  5
18D
330
1F
100
AcDbEntity
  8
0
  6
SLD-Сплошная
 62
     7
370
    25
100
AcDbSpline
210
0.0
220
0.0
230
1.0
 70
     8
 71
     3
 72
     9
 73
     5
 74
     0
 42
0.00000001
 43
0.00000001
 40
0.0
 40
0.0
 40
0.0
 40
0.0
 40
0.7440773539540784
 40
1.0
 40
1.0
 40
1.0
 40
1.0
 10
84.42676099881078
 20
153.8572216627345
 30
0.0
 10
84.43719623886325
 20
153.7890433298731
 30
0.0
 10
84.4512206410266
 20
153.6974153123033
 30
0.0
 10
84.59099068047642
 20
153.6599205581209
 30
0.0
 10
84.62676099881037
 20
153.6503248014177
 30
0.0
  0
SPLINE
  5
18E
330
1F
100
AcDbEntity
  8
0
  6
SLD-Сплошная
 62
     7
370
    25
100
AcDbSpline
210
0.0
220
0.0
230
1.0
 70
     8
 71
     3
 72
     9
 73
     5
 74
     0
 42
0.00000001
 43
0.00000001
 40
0.0
 40
0.0
 40
0.0
 40
0.0
 40
0.4141465363446993
 40
0.9999999999999999
 40
0.9999999999999999
 40
0.9999999999999999
 40
0.9999999999999999
 10
88.12676099881037
 20
153.6558111647493
 30
0.0
 10
88.17994240474052
 20
153.6726751123442
 30
0.0
 10
88.30835445521797
 20
153.713394872417
 30
0.0
 10
88.31996116669202
 20
153.8040884917291
 30
0.0
 10
88.32676099881076
 20
153.8572216627345
 30
0.0
  0
LWPOLYLINE
  5
18F
330
1F
100
AcDbEntity
  8
0
  6
SLD-Сплошная
 62
     7
370
    25
100
AcDbPolyline
 90
        6
 70
   128
 43
0.0
 10
97.1267609988
 20
166.4219056162
 10
97.6949850699
 20
166.3894753253
 10
98.201633246
 20
166.2956987781
 10
98.5918023358
 20
166.1507381184
 10
98.8232114642
 20
165.970302083
 10
98.8767609988
 20
165.8233703654
  0
LWPOLYLINE
  5
190
330
1F
100
AcDbEntity
  8
0
  6
SLD-Сплошная
 62
     7
370
    25
100
AcDbPolyline
 90
        6
 70
   128
 43
0.0
 10
95.3767609988
 20
165.8233703654
 10
95.4303105334
 20
165.970302083
 10
95.6617196619
 20
166.1507381184
 10
96.0518887516
 20
166.2956987781
 10
96.5585369277
 20
166.3894753253
 10
97.1267609988
 20
166.4219056162
  0
ARC
  5
191
330
1F
100
AcDbEntity
  8
0
  6
SLD-Сплошная
 62
     7
370
    25
100
AcDbCircle
 10
96.9504504988
 20
160.5311151997
 30
0.0
 40
6.320775059932058
100
AcDbArc
 50
88.4015950766
 51
109.1519891331
  0
LWPOLYLINE
  5
192
330
1F
100
AcDbEntity
  8
0
  6
SLD-Сплошная
 62
     7
370
    25
100
AcDbPolyline
 90
        3
 70
   128
 43
0.0
 10
95.1767609988
 20
165.0436319455
 10
95.3634052419
 20
164.9932700402
 10
95.3767609988
 20
164.9899703657
  0
LWPOLYLINE
  5
193
330
1F
100
AcDbEntity
  8
0
  6
SLD-Сплошная
 62
     7
370
    25
100
AcDbPolyline
 90
        3
 70
   128
 43
0.0
 10
98.8767609988
 20
164.9899703657
 10
98.8901167557
 20
164.9932700402
 10
99.0767609988
 20
165.0436319455
  0
ARC
  5
194
330
1F
100
AcDbEntity
  8
0
  6
SLD-Сплошная
 62
     7
370
    25
100
AcDbCircle
 10
97.3030714988
 20
160.5311151997
 30
0.0
 40
6.320775059930373
100
AcDbArc
 50
70.8480108669
 51
91.5984049234
  0
LWPOLYLINE
  5
195
330
1F
100
AcDbEntity
  8
0
  6
SLD-Сплошная
 62
     7
370
    25
100
AcDbPolyline
 90
        3
 70
   128
 43
0.0
 10
94.8767609988
 20
168.8512770993
 10
95.3402666089
 20
168.9968944318
 10
95.4337708323
 20
169.0196653508
  0
LWPOLYLINE
  5
196
330
1F
100
AcDbEntity
  8
0
  6
SLD-Сплошная
 62
     7
370
    25
100
AcDbPolyline
 90
        3
 70
   128
 43
0.0
 10
98.8197511653
 20
169.0196653508
 10
98.9132553887
 20
168.9968944318
 10
99.3767609988
 20
168.8512770993
  0
SPLINE
  5
197
330
1F
100
AcDbEntity
  8
0
  6
SLD-Сплошная
 62
     7
370
    25
100
AcDbSpline
210
0.0
220
0.0
230
1.0
 70
     8
 71
     3
 72
     9
 73
     5
 74
     0
 42
0.00000001
 43
0.00000001
 40
0.0
 40
0.0
 40
0.0
 40
0.0
 40
0.7440773539541258
 40
1.0
 40
1.0
 40
1.0
 40
1.0
 10
95.17676099881088
 20
163.958917336183
 30
0.0
 10
95.18719623886336
 20
163.8907390033216
 30
0.0
 10
95.20122064102671
 20
163.7991109857518
 30
0.0
 10
95.34099068047652
 20
163.7616162315694
 30
0.0
 10
95.37676099881044
 20
163.7520204748662
 30
0.0
  0
SPLINE
  5
198
330
1F
100
AcDbEntity
  8
0
  6
SLD-Сплошная
 62
     7
370
    25
100
AcDbSpline
210
0.0
220
0.0
230
1.0
 70
     8
 71
     3
 72
     9
 73
     5
 74
     0
 42
0.00000001
 43
0.00000001
 40
0.0
 40
0.0
 40
0.0
 40
0.0
 40
0.4141465363447563
 40
0.9999999999999999
 40
0.9999999999999999
 40
0.9999999999999999
 40
0.9999999999999999
 10
98.87676099881044
 20
163.7575068381978
 30
0.0
 10
98.92994240474061
 20
163.7743707857927
 30
0.0
 10
99.05835445521807
 20
163.8150905458654
 30
0.0
 10
99.06996116669214
 20
163.9057841651776
 30
0.0
 10
99.07676099881088
 20
163.958917336183
 30
0.0
  0
ELLIPSE
  5
199
330
1F
100
AcDbEntity
  8
0
  6
SLD-Сплошная
 62
     7
370
    25
100
AcDbEllipse
 10
97.1267609988
 20
141.5637740785
 30
0.0
 11
-1.278976924368180E-13
 21
35.0
 31
0.0
210
-3.439929117568739E-15
220
-1.257025703666461E-29
230
1.0
 40
0.9
 41
0.0
 42
6.283185307179586
  0
LINE
  5
19A
330
1F
100
AcDbEntity
  8
0
  6
SLD-Сплошная
 62
     7
370
    25
100
AcDbLine
 10
51.1267609988
 20
191.5637740785
 30
0.0
 11
143.1267609988
 21
191.5637740785
 31
0.0
  0
LINE
  5
19B
330
1F
100
AcDbEntity
  8
0
  6
SLD-Сплошная
 62
     7
370
    25
100
AcDbLine
 10
143.1267609988
 20
191.5637740785
 30
0.0
 11
143.1267609988
 21
91.5637740785
 31
0.0
  0
LINE
  5
19C
330
1F
100
AcDbEntity
  8
0
  6
SLD-Сплошная
 62
     7
370
    25
100
AcDbLine
 10
143.1267609988
 20
91.5637740785
 30
0.0
 11
51.1267609988
 21
91.5637740785
 31
0.0
  0
LINE
  5
19D
330
1F
100
AcDbEntity
  8
0
  6
SLD-Сплошная
 62
     7
370
    25
100
AcDbLine
 10
51.1267609988
 20
91.5637740785
 30
0.0
 11
51.1267609988
 21
191.5637740785
 31
0.0
  0
CIRCLE
  5
19E
330
1F
100
AcDbEntity
  8
0
  6
SLD-Сплошная
 62
     7
370
    25
100
AcDbCircle
 10
58.6332587027
 20
99.0746267245
 30
0.0
 40
2.687562129289404
  0
CIRCLE
  5
19F
330
1F
100
AcDbEntity
  8
0
  6
SLD-Сплошная
 62
     7
370
    25
100
AcDbCircle
 10
135.6353159735
 20
184.0790238211
 30
0.0
 40
2.682702717070299
  0
CIRCLE
  5
1A0
330
1F
100
AcDbEntity
  8
0
  6
SLD-Сплошная
 62
     7
370
    25
100
AcDbCircle
 10
58.6240532784
 20
184.0522458914
 30
0.0
 40
2.711716424944903
  0
CIRCLE
  5
1A1
330
1F
100
AcDbEntity
  8
0
  6
SLD-Сплошная
 62
     7
370
    25
100
AcDbCircle
 10
135.6249264009
 20
99.0592651588
 30
0.0
 40
2.704667027298797
  0
LINE
  5
1A2
330
1F
100
AcDbEntity
  8
0
  6
SLD-Сплошная
 62
     7
370
    25
100
AcDbLine
 10
138.1426493831
 20
98.331807422
 30
0.0
 11
138.1457307502
 21
98.3440579143
 31
0.0
  0
LINE
  5
1A3
330
1F
100
AcDbEntity
  8
0
  6
SLD-Сплошная
 62
     7
370
    25
100
AcDbLine
 10
132.9267609988
 20
99.0637740785
 30
0.0
 11
132.9267609988
 21
99.246687654
 31
0.0
  0
LINE
  5
1A4
330
1F
100
AcDbEntity
  8
0
  6
SLD-Сплошная
 62
     7
370
    25
100
AcDbLine
 10
138.1457307502
 20
183.3440579143
 30
0.0
 11
138.1426493831
 21
183.331807422
 31
0.0
  0
LINE
  5
1A5
330
1F
100
AcDbEntity
  8
0
  6
SLD-Сплошная
 62
     7
370
    25
100
AcDbLine
 10
138.3267609988
 20
99.1830130229
 30
0.0
 11
138.3267609988
 21
99.0637740797
 31
0.0
  0
LINE
  5
1A6
330
1F
100
AcDbEntity
  8
0
  6
SLD-Сплошная
 62
     7
370
    25
100
AcDbLine
 10
56.1108726145
 20
98.331807422
 30
0.0
 11
56.1077912475
 21
98.3440579143
 31
0.0
  0
LINE
  5
1A7
330
1F
100
AcDbEntity
  8
0
  6
SLD-Сплошная
 62
     7
370
    25
100
AcDbLine
 10
56.1077912475
 20
183.3440579143
 30
0.0
 11
56.1108726145
 21
183.331807422
 31
0.0
  0
LINE
  5
1A8
330
1F
100
AcDbEntity
  8
0
  6
SLD-Сплошная
 62
     7
370
    25
100
AcDbLine
 10
61.3267609988
 20
184.0637740785
 30
0.0
 11
61.3267609988
 21
184.2731009285
 31
0.0
  0
LINE
  5
1A9
330
1F
100
AcDbEntity
  8
0
  6
SLD-Сплошная
 62
     7
370
    25
100
AcDbLine
 10
55.9267609988
 20
184.3315670823
 30
0.0
 11
55.9267609988
 21
184.0637740797
 31
0.0
  0
LINE
  5
1AA
330
1F
100
AcDbEntity
  8
0
  6
SLD-Сплошная
 62
     7
370
    25
100
AcDbLine
 10
143.1267609988
 20
191.5637740785
 30
0.0
 11
143.1518938227
 21
191.5889069024
 31
0.0
  0
LINE
  5
1AB
330
1F
100
AcDbEntity
  8
0
  6
SLD-Сплошная
 62
     7
370
    25
100
AcDbLine
 10
51.1267609988
 20
191.5637740785
 30
0.0
 11
51.1016281749
 21
191.5889069024
 31
0.0
  0
LINE
  5
1AC
330
1F
100
AcDbEntity
  8
0
  6
SLD-Сплошная
 62
     7
370
    25
100
AcDbLine
 10
51.1016281749
 20
191.5889069024
 30
0.0
 11
143.1518938227
 21
191.5889069024
 31
0.0
  0
LINE
  5
1AD
330
1F
100
AcDbEntity
  8
0
  6
SLD-Сплошная
 62
     7
370
    25
100
AcDbLine
 10
143.1267609988
 20
91.5637740785
 30
0.0
 11
143.1518938227
 21
91.5386412546
 31
0.0
  0
LINE
  5
1AE
330
1F
100
AcDbEntity
  8
0
  6
SLD-Сплошная
 62
     7
370
    25
100
AcDbLine
 10
143.1518938227
 20
191.5889069024
 30
0.0
 11
143.1518938227
 21
91.5386412546
 31
0.0
  0
LINE
  5
1AF
330
1F
100
AcDbEntity
  8
0
  6
SLD-Сплошная
 62
     7
370
    25
100
AcDbLine
 10
51.1267609988
 20
91.5637740785
 30
0.0
 11
51.1016281749
 21
91.5386412546
 31
0.0
  0
LINE
  5
1B0
330
1F
100
AcDbEntity
  8
0
  6
SLD-Сплошная
 62
     7
370
    25
100
AcDbLine
 10
143.1518938227
 20
91.5386412546
 30
0.0
 11
51.1016281749
 21
91.5386412546
 31
0.0
  0
LINE
  5
1B1
330
1F
100
AcDbEntity
  8
0
  6
SLD-Сплошная
 62
     7
370
    25
100
AcDbLine
 10
51.1016281749
 20
91.5386412546
 30
0.0
 11
51.1016281749
 21
191.5889069024
 31
0.0
  0
LINE
  5
1B2
330
1F
100
AcDbEntity
  8
0
  6
SLD-Сплошная
 62
     7
370
    25
100
AcDbLine
 10
369.6400908042
 20
133.8237168921
 30
0.0
 11
369.6400908042
 21
134.5373160612
 31
0.0
  0
LINE
  5
1B3
330
1F
100
AcDbEntity
  8
0
  6
SLD-Сплошная
 62
     7
370
    25
100
AcDbLine
 10
353.5513474722
 20
128.0606697097
 30
0.0
 11
353.5513474722
 21
128.6536020468
 31
0.0
  0
LINE
  5
1B4
330
1F
100
AcDbEntity
  8
0
  6
SLD-Сплошная
 62
     7
370
    25
100
AcDbLine
 10
305.1513474722
 20
128.6536020468
 30
0.0
 11
305.1513474722
 21
128.0606697097
 31
0.0
  0
SPLINE
  5
1B5
330
1F
100
AcDbEntity
  8
0
  6
SLD-Сплошная
 62
     7
370
    25
100
AcDbSpline
210
0.0
220
0.0
230
1.0
 70
     8
 71
     3
 72
     9
 73
     5
 74
     0
 42
0.00000001
 43
0.00000001
 40
0.0
 40
0.0
 40
0.0
 40
0.0
 40
0.6156911571906043
 40
1.0
 40
1.0
 40
1.0
 40
1.0
 10
287.6649869574906
 20
129.1773417971213
 30
0.0
 10
287.6807803952481
 20
128.9542366668173
 30
0.0
 10
287.706431953782
 20
128.5918713352735
 30
0.0
 10
287.9125601421491
 20
128.3017831844187
 30
0.0
 10
287.9917770276908
 20
128.190299742851
 30
0.0
  0
SPLINE
  5
1B6
330
1F
100
AcDbEntity
  8
0
  6
SLD-Сплошная
 62
     7
370
    25
100
AcDbSpline
210
0.0
220
0.0
230
1.0
 70
     8
 71
     3
 72
    10
 73
     6
 74
     0
 42
0.00000001
 43
0.00000001
 40
0.0
 40
0.0
 40
0.0
 40
0.0
 40
0.071143070561808
 40
0.4018965690901098
 40
1.0
 40
1.0
 40
1.0
 40
1.0
 10
370.6801565845987
 20
126.1367215502816
 30
0.0
 10
370.6977344788471
 20
126.1578230993919
 30
0.0
 10
370.7970343169688
 20
126.2770285275938
 30
0.0
 10
370.9668858470246
 20
126.632647464756
 30
0.0
 10
371.0099682752042
 20
126.9929110183507
 30
0.0
 10
371.0377096283551
 20
127.2248895508972
 30
0.0
  0
SPLINE
  5
1B7
330
1F
100
AcDbEntity
  8
0
  6
SLD-Сплошная
 62
     7
370
    25
100
AcDbSpline
210
0.0
220
0.0
230
1.0
 70
     8
 71
     3
 72
    12
 73
     8
 74
     0
 42
0.00000001
 43
0.00000001
 40
0.0
 40
0.0
 40
0.0
 40
0.0
 40
0.1258785172892687
 40
0.3652552664386911
 40
0.4895484605969289
 40
0.6372630396013523
 40
1.0
 40
1.0
 40
1.0
 40
1.0
 10
287.9805144226644
 20
128.1406745897792
 30
0.0
 10
288.0324778671803
 20
128.083956686031
 30
0.0
 10
288.1832575409519
 20
127.919381240661
 30
0.0
 10
288.4685601224022
 20
127.8117073547106
 30
0.0
 10
288.7807564602464
 20
127.7275717570671
 30
0.0
 10
289.1928110760514
 20
127.6547693058205
 30
0.0
 10
289.5140655307305
 20
127.6229262674251
 30
0.0
 10
289.7423553004923
 20
127.6002979745005
 30
0.0
  0
LINE
  5
1B8
330
1F
100
AcDbEntity
  8
0
  6
SLD-Сплошная
 62
     7
370
    25
100
AcDbLine
 10
292.10190519
 20
127.488812364
 30
0.0
 11
299.7989642844
 21
128.1747961556
 31
0.0
  0
SPLINE
  5
1B9
330
1F
100
AcDbEntity
  8
0
  6
SLD-Сплошная
 62
     7
370
    25
100
AcDbSpline
210
0.0
220
0.0
230
1.0
 70
     8
 71
     3
 72
    12
 73
     8
 74
     0
 42
0.00000001
 43
0.00000001
 40
0.0
 40
0.0
 40
0.0
 40
0.0
 40
0.2503577830598506
 40
0.4302939731137229
 40
0.6243443746002983
 40
0.7737011831075313
 40
1.0
 40
1.0
 40
1.0
 40
1.0
 10
289.7424411672288
 20
127.6002895111577
 30
0.0
 10
289.9470378639
 20
127.582089809735
 30
0.0
 10
290.2986815173172
 20
127.5508096883866
 30
0.0
 10
290.802997266384
 20
127.5150435508626
 30
0.0
 10
291.2179446670128
 20
127.4926337968949
 30
0.0
 10
291.674387892471
 20
127.4745773256824
 30
0.0
 10
291.9516409234536
 20
127.4854647256619
 30
0.0
 10
292.1186610042109
 20
127.4920234075178
 30
0.0
  0
LINE
  5
1BA
330
1F
100
AcDbEntity
  8
0
  6
SLD-Сплошная
 62
     7
370
    25
100
AcDbLine
 10
287.6649516706
 20
134.4878075521
 30
0.0
 11
287.6649516706
 21
129.1785642433
 31
0.0
  0
SPLINE
  5
1BB
330
1F
100
AcDbEntity
  8
0
  6
SLD-Сплошная
 62
     7
370
    25
100
AcDbSpline
210
0.0
220
0.0
230
1.0
 70
     8
 71
     3
 72
    13
 73
     9
 74
     0
 42
0.00000001
 43
0.00000001
 40
0.0
 40
0.0
 40
0.0
 40
0.0
 40
0.3633474485209371
 40
0.5112456857534828
 40
0.6361020139545904
 40
0.7931937780360961
 40
0.8774619835856782
 40
1.0
 40
1.0
 40
1.0
 40
1.0
 10
368.8843294347732
 20
125.6528666384412
 30
0.0
 10
369.1148259945741
 20
125.6643362132574
 30
0.0
 10
369.4391446935463
 20
125.6804744045839
 30
0.0
 10
369.8526582798212
 20
125.7328577023823
 30
0.0
 10
370.1222379229565
 20
125.7912980272442
 30
0.0
 10
370.3207871360986
 20
125.8548552135632
 30
0.0
 10
370.5271677538498
 20
125.9633782215027
 30
0.0
 10
370.6134263534015
 20
126.0512585509876
 30
0.0
 10
370.6645367967304
 20
126.1033299110979
 30
0.0
  0
LINE
  5
1BC
330
1F
100
AcDbEntity
  8
0
  6
SLD-Сплошная
 62
     7
370
    25
100
AcDbLine
 10
358.8398490796
 20
126.7219667802
 30
0.0
 11
366.5013282083
 21
125.6588996253
 31
0.0
  0
SPLINE
  5
1BD
330
1F
100
AcDbEntity
  8
0
  6
SLD-Сплошная
 62
     7
370
    25
100
AcDbSpline
210
0.0
220
0.0
230
1.0
 70
     8
 71
     3
 72
    12
 73
     8
 74
     0
 42
0.00000001
 43
0.00000001
 40
0.0
 40
0.0
 40
0.0
 40
0.0
 40
0.2268416700886613
 40
0.3763698763542285
 40
0.5701857565737956
 40
0.7499146926535666
 40
1.0
 40
1.0
 40
1.0
 40
1.0
 10
366.4895702144361
 20
125.6622438209962
 30
0.0
 10
366.6580302399449
 20
125.6473252738446
 30
0.0
 10
366.937534790174
 20
125.6225728033456
 30
0.0
 10
367.3977891882102
 20
125.6180909427884
 30
0.0
 10
367.8160820479533
 20
125.6200013384274
 30
0.0
 10
368.3240445633857
 20
125.6308603623547
 30
0.0
 10
368.678195090703
 20
125.644769760922
 30
0.0
 10
368.8842558363057
 20
125.6528628761895
 30
0.0
  0
LINE
  5
1BE
330
1F
100
AcDbEntity
  8
0
  6
SLD-Сплошная
 62
     7
370
    25
100
AcDbLine
 10
371.0377432737
 20
127.2254604016
 30
0.0
 11
371.0377432737
 21
132.5347037104
 31
0.0
  0
LINE
  5
1BF
330
1F
100
AcDbEntity
  8
0
  6
SLD-Сплошная
 62
     7
370
    25
100
AcDbLine
 10
299.8001629044
 20
128.1749530158
 30
0.0
 11
301.6555584776
 21
128.2989649427
 31
0.0
  0
LINE
  5
1C0
330
1F
100
AcDbEntity
  8
0
  6
SLD-Сплошная
 62
     7
370
    25
100
AcDbLine
 10
356.9924842904
 20
126.9369373727
 30
0.0
 11
358.8387716512
 21
126.7221740462
 31
0.0
  0
LINE
  5
1C1
330
1F
100
AcDbEntity
  8
0
  6
SLD-Сплошная
 62
     7
370
    25
100
AcDbLine
 10
342.0013507729
 20
180.2517859955
 30
0.0
 11
316.5013507734
 21
180.2517859955
 31
0.0
  0
SPLINE
  5
1C2
330
1F
100
AcDbEntity
  8
0
  6
SLD-Сплошная
 62
     7
370
    25
100
AcDbSpline
210
0.0
220
0.0
230
1.0
 70
     8
 71
     3
 72
     9
 73
     5
 74
     0
 42
0.00000001
 43
0.00000001
 40
0.0
 40
0.0
 40
0.0
 40
0.0
 40
0.5739941867854419
 40
1.0
 40
1.0
 40
1.0
 40
1.0
 10
370.2703205242376
 20
183.3440579143362
 30
0.0
 10
370.2121824182749
 20
183.1528080953137
 30
0.0
 10
370.1108954935968
 20
182.8196168828844
 30
0.0
 10
369.9094966467255
 20
182.5335212984437
 30
0.0
 10
369.8236995671836
 20
182.4116429163369
 30
0.0
  0
SPLINE
  5
1C3
330
1F
100
AcDbEntity
  8
0
  6
SLD-Сплошная
 62
     7
370
    25
100
AcDbSpline
210
0.0
220
0.0
230
1.0
 70
     8
 71
     3
 72
     9
 73
     5
 74
     0
 42
0.00000001
 43
0.00000001
 40
0.0
 40
0.0
 40
0.0
 40
0.0
 40
0.5739941867856229
 40
1.0
 40
1.0
 40
1.0
 40
1.0
 10
370.2703205242373
 20
98.34405791433618
 30
0.0
 10
370.2121824182747
 20
98.15280809531372
 30
0.0
 10
370.1108954935965
 20
97.81961688288446
 30
0.0
 10
369.9094966467252
 20
97.53352129844379
 30
0.0
 10
369.8236995671834
 20
97.41164291633709
 30
0.0
  0
SPLINE
  5
1C4
330
1F
100
AcDbEntity
  8
0
  6
SLD-Сплошная
 62
     7
370
    25
100
AcDbSpline
210
0.0
220
0.0
230
1.0
 70
     8
 71
     3
 72
     9
 73
     5
 74
     0
 42
0.00000001
 43
0.00000001
 40
0.0
 40
0.0
 40
0.0
 40
0.0
 40
0.4260058132115875
 40
1.0
 40
1.0
 40
1.0
 40
1.0
 10
288.6790019786054
 20
182.4116429163252
 30
0.0
 10
288.5932048990619
 20
182.5335212984323
 30
0.0
 10
288.3918060521855
 20
182.8196168828758
 30
0.0
 10
288.2905191275055
 20
183.1528080953101
 30
0.0
 10
288.2323810215416
 20
183.3440579143364
 30
0.0
  0
SPLINE
  5
1C5
330
1F
100
AcDbEntity
  8
0
  6
SLD-Сплошная
 62
     7
370
    25
100
AcDbSpline
210
0.0
220
0.0
230
1.0
 70
     8
 71
     3
 72
     9
 73
     5
 74
     0
 42
0.00000001
 43
0.00000001
 40
0.0
 40
0.0
 40
0.0
 40
0.0
 40
0.4260058132031174
 40
1.0
 40
1.0
 40
1.0
 40
1.0
 10
288.679001978604
 20
97.41164291632884
 30
0.0
 10
288.593204899062
 20
97.5335212984328
 30
0.0
 10
288.3918060521854
 20
97.81961688287466
 30
0.0
 10
288.2905191275059
 20
98.15280809530793
 30
0.0
 10
288.2323810215412
 20
98.34405791433645
 30
0.0
  0
LINE
  5
1C6
330
1F
100
AcDbEntity
  8
0
  6
SLD-Сплошная
 62
     7
370
    25
100
AcDbLine
 10
370.4094987352
 20
99.2413822931
 30
0.0
 11
370.2672391572
 21
98.331807422
 31
0.0
  0
LINE
  5
1C7
330
1F
100
AcDbEntity
  8
0
  6
SLD-Сплошная
 62
     7
370
    25
100
AcDbLine
 10
370.4000457111
 20
184.1809418412
 30
0.0
 11
370.2672391572
 21
183.331807422
 31
0.0
  0
LINE
  5
1C8
330
1F
100
AcDbEntity
  8
0
  6
SLD-Сплошная
 62
     7
370
    25
100
AcDbLine
 10
288.2354623886
 20
183.331807422
 30
0.0
 11
288.1026558347
 21
184.1809418412
 31
0.0
  0
LINE
  5
1C9
330
1F
100
AcDbEntity
  8
0
  6
SLD-Сплошная
 62
     7
370
    25
100
AcDbLine
 10
288.2354623886
 20
98.331807422
 30
0.0
 11
288.1026558347
 21
99.1809418412
 31
0.0
  0
LINE
  5
1CA
330
1F
100
AcDbEntity
  8
0
  6
SLD-Сплошная
 62
     7
370
    25
100
AcDbLine
 10
318.8710711731
 20
165.6937902933
 30
0.0
 11
318.8710711369
 21
169.4652564887
 31
0.0
  0
LINE
  5
1CB
330
1F
100
AcDbEntity
  8
0
  6
SLD-Сплошная
 62
     7
370
    25
100
AcDbLine
 10
319.4360879091
 20
167.3327321726
 30
0.0
 11
318.8710711369
 21
169.4652564887
 31
0.0
  0
LINE
  5
1CC
330
1F
100
AcDbEntity
  8
0
  6
SLD-Сплошная
 62
     7
370
    25
100
AcDbLine
 10
319.4360879091
 20
167.3327321726
 30
0.0
 11
319.4360879091
 21
163.8282568092
 31
0.0
  0
LWPOLYLINE
  5
1CD
330
1F
100
AcDbEntity
  8
0
  6
SLD-Сплошная
 62
     7
370
    25
100
AcDbPolyline
 90
        9
 70
   128
 43
0.0
 10
318.8710711731
 20
165.6937902933
 10
318.941680087
 20
165.4604538234
 10
319.01229426
 20
165.2271585047
 10
319.0829136594
 20
164.9939044451
 10
319.1535382525
 20
164.7606917525
 10
319.2241680067
 20
164.5275205347
 10
319.2948028894
 20
164.2943908997
 10
319.3654428677
 20
164.0613029552
 10
319.4360879091
 20
163.8282568092
  0
LWPOLYLINE
  5
1CE
330
1F
100
AcDbEntity
  8
0
  6
SLD-Сплошная
 62
     7
370
    25
100
AcDbPolyline
 90
       19
 70
   128
 43
0.0
 10
353.5513474722
 20
128.6536020468
 10
353.459259166
 20
130.6355725682
 10
353.1836950951
 20
132.6024590971
 10
352.7267524684
 20
134.5392924394
 10
352.0919088952
 20
136.431332124
 10
351.2839959184
 20
138.2641785864
 10
350.3091622437
 20
140.0238827583
 10
349.174826944
 20
141.6970522285
 10
347.8896229956
 20
143.2709531669
 10
346.4633315769
 20
144.733607237
 10
344.9068076266
 20
146.0738827583
 10
343.2318972319
 20
147.2815794248
 10
341.4513474722
 20
148.3475059355
 10
339.5787094063
 20
149.2635499461
 10
337.6282349406
 20
150.0227398086
 10
335.6147683636
 20
150.6192976296
 10
333.5536333717
 20
151.0486832441
 10
331.4605164466
 20
151.3076287681
 10
329.3513474722
 20
151.3941634699
  0
LWPOLYLINE
  5
1CF
330
1F
100
AcDbEntity
  8
0
  6
SLD-Сплошная
 62
     7
370
    25
100
AcDbPolyline
 90
       19
 70
   128
 43
0.0
 10
329.3513474722
 20
151.3941634699
 10
327.2421784977
 20
151.3076287681
 10
325.1490615726
 20
151.0486832441
 10
323.0879265807
 20
150.6192976296
 10
321.0744600037
 20
150.0227398086
 10
319.123985538
 20
149.2635499461
 10
317.2513474722
 20
148.3475059355
 10
315.4707977125
 20
147.2815794248
 10
313.7958873177
 20
146.0738827584
 10
312.2393633674
 20
144.733607237
 10
310.8130719487
 20
143.2709531669
 10
309.5278680004
 20
141.6970522285
 10
308.3935327006
 20
140.0238827584
 10
307.4186990259
 20
138.2641785864
 10
306.6107860491
 20
136.431332124
 10
305.975942476
 20
134.5392924394
 10
305.5189998493
 20
132.6024590971
 10
305.2434357783
 20
130.6355725682
 10
305.1513474722
 20
128.6536020468
  0
SPLINE
  5
1D0
330
1F
100
AcDbEntity
  8
0
  6
SLD-Сплошная
 62
     7
370
    25
100
AcDbSpline
210
0.0
220
0.0
230
1.0
 70
     8
 71
     3
 72
    10
 73
     6
 74
     0
 42
0.00000001
 43
0.00000001
 40
0.0
 40
0.0
 40
0.0
 40
0.0
 40
0.5
 40
0.5
 40
1.0
 40
1.0
 40
1.0
 40
1.0
 10
292.3884142590667
 20
131.6392691953979
 30
0.0
 10
292.5618091724959
 20
131.6175161874926
 30
0.0
 10
292.7352846054812
 20
131.6239386446833
 30
0.0
 10
293.079988258235
 20
131.6528819810657
 30
0.0
 10
293.2515195396898
 20
131.6766948181607
 30
0.0
 10
293.4221079430196
 20
131.6996917790755
 30
0.0
  0
LWPOLYLINE
  5
1D1
330
1F
100
AcDbEntity
  8
0
  6
SLD-Сплошная
 62
     7
370
    25
100
AcDbPolyline
 90
        9
 70
   128
 43
0.0
 10
292.3884142591
 20
131.6392691954
 10
292.3846426639
 20
131.6397425017
 10
292.3808710727
 20
131.6402158211
 10
292.3770994855
 20
131.6406891536
 10
292.3733279022
 20
131.6411624991
 10
292.3695563229
 20
131.6416358576
 10
292.3657847476
 20
131.6421092293
 10
292.3620131762
 20
131.642582614
 10
292.3582416086
 20
131.6430560108
  0
SPLINE
  5
1D2
330
1F
100
AcDbEntity
  8
0
  6
SLD-Сплошная
 62
     7
370
    25
100
AcDbSpline
210
0.0
220
0.0
230
1.0
 70
     8
 71
     3
 72
     8
 73
     4
 74
     0
 42
0.00000001
 43
0.00000001
 40
0.0
 40
0.0
 40
0.0
 40
0.0
 40
1.0
 40
1.0
 40
1.0
 40
1.0
 10
292.2549015455439
 20
131.6459219595246
 30
0.0
 10
292.2893626311552
 20
131.6483411914461
 30
0.0
 10
292.3238092848894
 20
131.6473779323159
 30
0.0
 10
292.3582416086261
 20
131.643056010768
 30
0.0
  0
LWPOLYLINE
  5
1D3
330
1F
100
AcDbEntity
  8
0
  6
SLD-Сплошная
 62
     7
370
    25
100
AcDbPolyline
 90
        9
 70
   128
 43
0.0
 10
292.2549015455
 20
131.6459219595
 10
292.1160354989
 20
131.6361825237
 10
291.9771747731
 20
131.6264618962
 10
291.8383193884
 20
131.6167600783
 10
291.699469365
 20
131.6070770716
 10
291.5606247231
 20
131.5974128774
 10
291.421785483
 20
131.5877674972
 10
291.2829516651
 20
131.5781409323
 10
291.1441232894
 20
131.5685331841
  0
ARC
  5
1D4
330
1F
100
AcDbEntity
  8
0
  6
SLD-Сплошная
 62
     7
370
    25
100
AcDbCircle
 10
325.725610615
 20
128.9018943515
 30
0.0
 40
34.68414952564823
100
AcDbArc
 50
142.0714721323
 51
175.5905485028
  0
LWPOLYLINE
  5
1D5
330
1F
100
AcDbEntity
  8
0
  6
SLD-Сплошная
 62
     7
370
    25
100
AcDbPolyline
 90
        9
 70
   128
 43
0.0
 10
296.7892243052
 20
151.4326083032
 10
296.9864594854
 20
151.2810512352
 10
297.1837093561
 20
151.1295414095
 10
297.3809738259
 20
150.978078896
 10
297.5782528037
 20
150.826663765
 10
297.7755461982
 20
150.6752960864
 10
297.9728539181
 20
150.5239759302
 10
298.1701758721
 20
150.3727033666
 10
298.367511969
 20
150.2214784653
  0
ARC
  5
1D6
330
1F
100
AcDbEntity
  8
0
  6
SLD-Сплошная
 62
     7
370
    25
100
AcDbCircle
 10
326.9985953946
 20
128.0070779361
 30
0.0
 40
38.22775921495302
100
AcDbArc
 50
139.3231537557
 51
142.2085977034
  0
LWPOLYLINE
  5
1D7
330
1F
100
AcDbEntity
  8
0
  6
SLD-Сплошная
 62
     7
370
    25
100
AcDbPolyline
 90
        9
 70
   128
 43
0.0
 10
298.0067471632
 20
152.9236248623
 10
298.2039823434
 20
152.7720677943
 10
298.4012322141
 20
152.6205579685
 10
298.5984966839
 20
152.4690954551
 10
298.7957756617
 20
152.3176803241
 10
298.9930690562
 20
152.1663126455
 10
299.1903767761
 20
152.0149924893
 10
299.3876987301
 20
151.8637199257
 10
299.585034827
 20
151.7124950244
  0
ARC
  5
1D8
330
1F
100
AcDbEntity
  8
0
  6
SLD-Сплошная
 62
     7
370
    25
100
AcDbCircle
 10
328.5863677131
 20
126.4821088361
 30
0.0
 40
38.44020936968901
100
AcDbArc
 50
106.7338037326
 51
138.9776006965
  0
LWPOLYLINE
  5
1D9
330
1F
100
AcDbEntity
  8
0
  6
SLD-Сплошная
 62
     7
370
    25
100
AcDbPolyline
 90
        9
 70
   128
 43
0.0
 10
316.9534317033
 20
165.1600160461
 10
317.0240406172
 20
164.9266795762
 10
317.0946547902
 20
164.6933842575
 10
317.1652741896
 20
164.4601301979
 10
317.2358987828
 20
164.2269175052
 10
317.306528537
 20
163.9937462875
 10
317.3771634196
 20
163.7606166525
 10
317.447803398
 20
163.527528708
 10
317.5184484394
 20
163.294482562
  0
ARC
  5
1DA
330
1F
100
AcDbEntity
  8
0
  6
SLD-Сплошная
 62
     7
370
    25
100
AcDbCircle
 10
329.2435525027
 20
124.7180261901
 30
0.0
 40
42.26821042788571
100
AcDbArc
 50
104.2052814324
 51
106.9037675108
  0
ARC
  5
1DB
330
1F
100
AcDbEntity
  8
0
  6
SLD-Сплошная
 62
     7
370
    25
100
AcDbCircle
 10
329.3494161127
 20
124.4167194863
 30
0.0
 40
40.63918491095811
100
AcDbArc
 50
73.0619299725
 51
104.1189168317
  0
LWPOLYLINE
  5
1DC
330
1F
100
AcDbEntity
  8
0
  6
SLD-Сплошная
 62
     7
370
    25
100
AcDbPolyline
 90
        9
 70
   128
 43
0.0
 10
341.8532215355
 20
165.1282750171
 10
341.7702339779
 20
164.8987180522
 10
341.6872402392
 20
164.66920252
 10
341.6042403578
 20
164.4397285266
 10
341.5212343722
 20
164.2102961781
 10
341.4382223207
 20
163.9809055808
 10
341.3552042417
 20
163.7515568408
 10
341.2721801736
 20
163.5222500641
 10
341.1891501549
 20
163.2929853568
  0
ARC
  5
1DD
330
1F
100
AcDbEntity
  8
0
  6
SLD-Сплошная
 62
     7
370
    25
100
AcDbCircle
 10
329.5264328686
 20
124.9380331798
 30
0.0
 40
42.03814051288889
100
AcDbArc
 50
70.2403244789
 51
72.9486480711
  0
LWPOLYLINE
  5
1DE
330
1F
100
AcDbEntity
  8
0
  6
SLD-Сплошная
 62
     7
370
    25
100
AcDbPolyline
 90
        9
 70
   128
 43
0.0
 10
343.7385045177
 20
164.5009233324
 10
343.6555169601
 20
164.2713663674
 10
343.5725232214
 20
164.0418508352
 10
343.48952334
 20
163.8123768418
 10
343.4065173544
 20
163.5829444934
 10
343.3235053029
 20
163.3535538961
 10
343.2404872239
 20
163.124205156
 10
343.1574631558
 20
162.8948983793
 10
343.0744331371
 20
162.665633672
  0
ARC
  5
1DF
330
1F
100
AcDbEntity
  8
0
  6
SLD-Сплошная
 62
     7
370
    25
100
AcDbCircle
 10
330.3083494737
 20
126.7655277844
 30
0.0
 40
38.10236862505924
100
AcDbArc
 50
37.9883041616
 51
70.4246050026
  0
LWPOLYLINE
  5
1E0
330
1F
100
AcDbEntity
  8
0
  6
SLD-Сплошная
 62
     7
370
    25
100
AcDbPolyline
 90
        9
 70
   128
 43
0.0
 10
361.9777203986
 20
151.3495092106
 10
361.7728347958
 20
151.207847015
 10
361.5679339328
 20
151.0662327987
 10
361.3630179043
 20
150.924666627
 10
361.1580868051
 20
150.7831485656
 10
360.95314073
 20
150.6416786799
 10
360.7481797739
 20
150.5002570354
 10
360.5432040315
 20
150.3588836974
 10
360.3382135977
 20
150.2175587314
  0
ARC
  5
1E1
330
1F
100
AcDbEntity
  8
0
  6
SLD-Сплошная
 62
     7
370
    25
100
AcDbCircle
 10
331.9886736159
 20
128.2271580299
 30
0.0
 40
37.86800827949179
100
AcDbArc
 50
34.7294857211
 51
37.6331771772
  0
LWPOLYLINE
  5
1E2
330
1F
100
AcDbEntity
  8
0
  6
SLD-Сплошная
 62
     7
370
    25
100
AcDbPolyline
 90
        9
 70
   128
 43
0.0
 10
363.1105328724
 20
149.8006586145
 10
362.9056472696
 20
149.6589964189
 10
362.7007464066
 20
149.5173822026
 10
362.4958303781
 20
149.375816031
 10
362.2908992789
 20
149.2342979696
 10
362.0859532039
 20
149.0928280839
 10
361.8809922477
 20
148.9514064393
 10
361.6760165054
 20
148.8100331013
 10
361.4710260716
 20
148.6687081353
  0
ARC
  5
1E3
330
1F
100
AcDbEntity
  8
0
  6
SLD-Сплошная
 62
     7
370
    25
100
AcDbCircle
 10
333.1752173214
 20
128.9691783405
 30
0.0
 40
34.47788083623056
100
AcDbArc
 50
1.1914452783
 51
34.8456190046
  0
LWPOLYLINE
  5
1E4
330
1F
100
AcDbEntity
  8
0
  6
SLD-Сплошная
 62
     7
370
    25
100
AcDbPolyline
 90
        9
 70
   128
 43
0.0
 10
366.54285865
 20
129.8179392027
 10
366.6807254499
 20
129.80139028
 10
366.8185869672
 20
129.7848604264
 10
366.9564431819
 20
129.7683496445
 10
367.0942940739
 20
129.7518579366
 10
367.2321396231
 20
129.7353853051
 10
367.3699798092
 20
129.7189317524
 10
367.5078146124
 20
129.702497281
 10
367.6456440123
 20
129.6860818932
  0
SPLINE
  5
1E5
330
1F
100
AcDbEntity
  8
0
  6
SLD-Сплошная
 62
     7
370
    25
100
AcDbSpline
210
0.0
220
0.0
230
1.0
 70
     8
 71
     3
 72
     8
 73
     4
 74
     0
 42
0.00000001
 43
0.00000001
 40
0.0
 40
0.0
 40
0.0
 40
0.0
 40
1.0
 40
1.0
 40
1.0
 40
1.0
 10
366.5428586500333
 20
129.8179392027124
 30
0.0
 10
366.5085147101556
 20
129.8220639939551
 30
0.0
 10
366.4741280107209
 20
129.8227688491543
 30
0.0
 10
366.439699811135
 20
129.8201545140527
 30
0.0
  0
LWPOLYLINE
  5
1E6
330
1F
100
AcDbEntity
  8
0
  6
SLD-Сплошная
 62
     7
370
    25
100
AcDbPolyline
 90
        9
 70
   128
 43
0.0
 10
366.4396998111
 20
129.8201545141
 10
366.4359144364
 20
129.8198670751
 10
366.4321290576
 20
129.8195796495
 10
366.4283436749
 20
129.819292237
 10
366.4245582882
 20
129.8190048379
 10
366.4207728975
 20
129.818717452
 10
366.4169875029
 20
129.8184300794
 10
366.4132021043
 20
129.81814272
 10
366.4094167016
 20
129.8178553748
  0
SPLINE
  5
1E7
330
1F
100
AcDbEntity
  8
0
  6
SLD-Сплошная
 62
     7
370
    25
100
AcDbSpline
210
0.0
220
0.0
230
1.0
 70
     8
 71
     3
 72
    10
 73
     6
 74
     0
 42
0.00000001
 43
0.00000001
 40
0.0
 40
0.0
 40
0.0
 40
0.0
 40
0.5
 40
0.5
 40
1.0
 40
1.0
 40
1.0
 40
1.0
 10
366.409416701635
 20
129.8178553748295
 30
0.0
 10
366.2353838870437
 20
129.8046513533913
 30
0.0
 10
366.0628335221035
 20
129.8195892963815
 30
0.0
 10
365.7208613878581
 20
129.8654275680855
 30
0.0
 10
365.5512090197375
 20
129.8976323834216
 30
0.0
 10
365.3824506210679
 20
129.9289839723781
 30
0.0
  0
ARC
  5
1E8
330
1F
100
AcDbEntity
  8
0
  6
SLD-Сплошная
 62
     7
370
    25
100
AcDbCircle
 10
332.9490077189
 20
129.2441745912
 30
0.0
 40
34.71618093030224
100
AcDbArc
 50
322.0790201189
 51
353.9987210136
  0
LWPOLYLINE
  5
1E9
330
1F
100
AcDbEntity
  8
0
  6
SLD-Сплошная
 62
     7
370
    25
100
AcDbPolyline
 90
        9
 70
   128
 43
0.0
 10
361.9134706391
 20
106.8435855074
 10
361.7162354589
 20
106.9764618877
 10
361.5189855883
 20
107.1094066955
 10
361.3217211184
 20
107.2424198691
 10
361.1244421406
 20
107.375501347
 10
360.9271487461
 20
107.5086510678
 10
360.7298410263
 20
107.6418689697
 10
360.5325190722
 20
107.7751549912
 10
360.3351829754
 20
107.9085090705
  0
ARC
  5
1EA
330
1F
100
AcDbEntity
  8
0
  6
SLD-Сплошная
 62
     7
370
    25
100
AcDbCircle
 10
331.7040995496
 20
130.2691158746
 30
0.0
 40
38.22775921517014
100
AcDbArc
 50
319.3231537557
 51
322.2085977034
  0
LWPOLYLINE
  5
1EB
330
1F
100
AcDbEntity
  8
0
  6
SLD-Сплошная
 62
     7
370
    25
100
AcDbPolyline
 90
        9
 70
   128
 43
0.0
 10
360.6959477811
 20
105.3525689483
 10
360.4987126009
 20
105.4854453286
 10
360.3014627302
 20
105.6183901364
 10
360.1041982604
 20
105.75140331
 10
359.9069192826
 20
105.884484788
 10
359.7096258881
 20
106.0176345087
 10
359.5123181682
 20
106.1508524106
 10
359.3149962142
 20
106.2841384321
 10
359.1176601173
 20
106.4174925115
  0
ARC
  5
1EC
330
1F
100
AcDbEntity
  8
0
  6
SLD-Сплошная
 62
     7
370
    25
100
AcDbCircle
 10
330.1163272313
 20
131.6478786998
 30
0.0
 40
38.4402093696852
100
AcDbArc
 50
286.7338037326
 51
318.9776006965
  0
LWPOLYLINE
  5
1ED
330
1F
100
AcDbEntity
  8
0
  6
SLD-Сплошная
 62
     7
370
    25
100
AcDbPolyline
 90
        9
 70
   128
 43
0.0
 10
341.749263241
 20
93.1161777645
 10
341.6786543271
 20
93.3308335467
 10
341.6080401541
 20
93.5455638474
 10
341.5374207547
 20
93.7603685672
 10
341.4667961616
 20
93.9752476068
 10
341.3961664073
 20
94.1902008667
 10
341.3255315247
 20
94.4052282475
 10
341.2548915464
 20
94.6203296497
 10
341.1842465049
 20
94.8355049739
  0
ARC
  5
1EE
330
1F
100
AcDbEntity
  8
0
  6
SLD-Сплошная
 62
     7
370
    25
100
AcDbCircle
 10
329.4591424416
 20
133.5581676206
 30
0.0
 40
42.26821042794949
100
AcDbArc
 50
284.2052814324
 51
286.9037675108
  0
LWPOLYLINE
  5
1EF
330
1F
100
AcDbEntity
  8
0
  6
SLD-Сплошная
 62
     7
370
    25
100
AcDbPolyline
 90
        9
 70
   128
 43
0.0
 10
339.8316237713
 20
92.5824035173
 10
339.7610148574
 20
92.7970592995
 10
339.6904006844
 20
93.0117896002
 10
339.619781285
 20
93.22659432
 10
339.5491566918
 20
93.4414733596
 10
339.4785269376
 20
93.6564266195
 10
339.407892055
 20
93.8714540003
 10
339.3372520766
 20
94.0865554025
 10
339.2666070352
 20
94.3017307267
  0
ARC
  5
1F0
330
1F
100
AcDbEntity
  8
0
  6
SLD-Сплошная
 62
     7
370
    25
100
AcDbCircle
 10
329.3532788316
 20
133.7132680496
 30
0.0
 40
40.63918491095739
100
AcDbArc
 50
253.0619299725
 51
284.1189168317
  0
LWPOLYLINE
  5
1F1
330
1F
100
AcDbEntity
  8
0
  6
SLD-Сплошная
 62
     7
370
    25
100
AcDbPolyline
 90
        9
 70
   128
 43
0.0
 10
316.8494734088
 20
93.1479187935
 10
316.9324609664
 20
93.3587950707
 10
317.0154547051
 20
93.569745585
 10
317.0984545865
 20
93.7807702386
 10
317.1814605721
 20
93.9918689339
 10
317.2644726236
 20
94.2030415733
 10
317.3474907026
 20
94.4142880591
 10
317.4305147707
 20
94.6256082937
 10
317.5135447894
 20
94.8370021791
  0
ARC
  5
1F2
330
1F
100
AcDbEntity
  8
0
  6
SLD-Сплошная
 62
     7
370
    25
100
AcDbCircle
 10
329.1762620758
 20
133.338160631
 30
0.0
 40
42.03814051312984
100
AcDbArc
 50
250.2403244789
 51
252.9486480711
  0
LWPOLYLINE
  5
1F3
330
1F
100
AcDbEntity
  8
0
  6
SLD-Сплошная
 62
     7
370
    25
100
AcDbPolyline
 90
        9
 70
   128
 43
0.0
 10
314.9641904266
 20
93.7752704782
 10
315.0471779843
 20
93.9861467555
 10
315.1301717229
 20
94.1970972697
 10
315.2131716043
 20
94.4081219233
 10
315.2961775899
 20
94.6192206187
 10
315.3791896415
 20
94.8303932581
 10
315.4622077205
 20
95.0416397439
 10
315.5452317885
 20
95.2529599784
 10
315.6282618073
 20
95.4643538639
  0
ARC
  5
1F4
330
1F
100
AcDbEntity
  8
0
  6
SLD-Сплошная
 62
     7
370
    25
100
AcDbCircle
 10
328.3943454706
 20
131.3644597514
 30
0.0
 40
38.10236862505732
100
AcDbArc
 50
217.9883041616
 51
250.4246050026
  0
LWPOLYLINE
  5
1F5
330
1F
100
AcDbEntity
  8
0
  6
SLD-Сплошная
 62
     7
370
    25
100
AcDbPolyline
 90
        9
 70
   128
 43
0.0
 10
296.7249745458
 20
106.9266846
 10
296.9298601485
 20
107.0496661079
 10
297.1347610116
 20
107.1727153063
 10
297.3396770401
 20
107.2958321381
 10
297.5446081393
 20
107.4190165464
 10
297.7495542143
 20
107.5422684742
 10
297.9545151704
 20
107.6655878646
 10
298.1594909128
 20
107.7889746604
 10
298.3644813466
 20
107.9124288045
  0
ARC
  5
1F6
330
1F
100
AcDbEntity
  8
0
  6
SLD-Сплошная
 62
     7
370
    25
100
AcDbCircle
 10
326.7140213285
 20
130.0490357807
 30
0.0
 40
37.86800827952549
100
AcDbArc
 50
214.7294857211
 51
217.6331771772
  0
LWPOLYLINE
  5
1F7
330
1F
100
AcDbEntity
  8
0
  6
SLD-Сплошная
 62
     7
370
    25
100
AcDbPolyline
 90
        9
 70
   128
 43
0.0
 10
295.5921620719
 20
108.475535196
 10
295.7970476747
 20
108.598516704
 10
296.0019485377
 20
108.7215659023
 10
296.2068645662
 20
108.8446827341
 10
296.4117956654
 20
108.9678671425
 10
296.6167417405
 20
109.0911190703
 10
296.8217026966
 20
109.2144384606
 10
297.026678439
 20
109.3378252564
 10
297.2316688728
 20
109.4612794006
  0
ARC
  5
1F8
330
1F
100
AcDbEntity
  8
0
  6
SLD-Сплошная
 62
     7
370
    25
100
AcDbCircle
 10
325.5514058102
 20
129.1728842484
 30
0.0
 40
34.50441806317746
100
AcDbArc
 50
182.7859396277
 51
214.8393723211
  0
LWPOLYLINE
  5
1F9
330
1F
100
AcDbEntity
  8
0
  6
SLD-Сплошная
 62
     7
370
    25
100
AcDbPolyline
 90
       39
 70
   128
 43
0.0
 10
362.9475593256
 20
155.4331176009
 10
361.369709473
 20
157.5167365201
 10
359.6457671782
 20
159.4955056143
 10
357.7835983947
 20
161.3603962139
 10
355.7916997715
 20
163.102899251
 10
353.679159885
 20
164.7150640838
 10
351.4556177704
 20
166.1895347739
 10
349.1312189402
 20
167.5195836498
 10
346.7165690933
 20
168.6991420035
 10
344.2226857229
 20
169.7228277808
 10
341.660947847
 20
170.5859701383
 10
339.043044088
 20
171.2846307554
 10
336.3809193402
 20
171.8156218038
 10
333.6867202682
 20
172.1765204933
 10
330.9727398845
 20
172.365680126
 10
328.2513614592
 20
172.3822376097
 10
325.5350020177
 20
172.2261173965
 10
322.8360556852
 20
171.8980318271
 10
320.1668371348
 20
171.3994778808
 10
317.5395253985
 20
170.7327303447
 10
314.9661082972
 20
169.9008314351
 10
312.4583277428
 20
168.9075769158
 10
310.0276261628
 20
167.7574987794
 10
307.6850942911
 20
166.4558445687
 10
305.4414205633
 20
165.0085534332
 10
303.306842348
 20
163.4222290304
 10
301.291099236
 20
161.7041093949
 10
299.4033886008
 20
159.8620339123
 10
297.6523236331
 20
157.9044075506
 10
296.0458940406
 20
155.84016251
 10
294.5914295932
 20
153.678717467
 10
293.2955666786
 20
151.4299345997
 10
292.1642180219
 20
149.1040745886
 10
291.2025457077
 20
146.7117497992
 10
290.4149376262
 20
144.2638758611
 10
289.8049874523
 20
141.7716218615
 10
289.3754782488
 20
139.2463593837
 10
289.1283697677
 20
136.6996106214
 10
289.0849979866
 20
135.7994244855
  0
ARC
  5
1FA
330
1F
100
AcDbEntity
  8
0
  6
SLD-Сплошная
 62
     7
370
    25
100
AcDbCircle
 10
333.3760047651
 20
134.4422592832
 30
0.0
 40
36.26421062201406
100
AcDbArc
 50
0.1501854951
 51
35.3683808197
  0
LINE
  5
1FB
330
1F
100
AcDbEntity
  8
0
  6
SLD-Сплошная
 62
     7
370
    25
100
AcDbLine
 10
295.5921620719
 20
108.475535196
 30
0.0
 11
295.5921620719
 21
112.0670113512
 31
0.0
  0
LINE
  5
1FC
330
1F
100
AcDbEntity
  8
0
  6
SLD-Сплошная
 62
     7
370
    25
100
AcDbLine
 10
314.9641904266
 20
93.7752704782
 30
0.0
 11
314.9641904266
 21
95.7105421496
 31
0.0
  0
LINE
  5
1FD
330
1F
100
AcDbEntity
  8
0
  6
SLD-Сплошная
 62
     7
370
    25
100
AcDbLine
 10
341.749263241
 20
95.0125546712
 30
0.0
 11
341.749263241
 21
93.1161777645
 31
0.0
  0
LINE
  5
1FE
330
1F
100
AcDbEntity
  8
0
  6
SLD-Сплошная
 62
     7
370
    25
100
AcDbLine
 10
361.9134706391
 20
110.1167698848
 30
0.0
 11
361.9134706391
 21
106.8435855074
 31
0.0
  0
ARC
  5
1FF
330
1F
100
AcDbEntity
  8
0
  6
SLD-Сплошная
 62
     7
370
    25
100
AcDbCircle
 10
333.1512766935
 20
133.1254671769
 30
0.0
 40
36.51462893738471
100
AcDbArc
 50
326.6257764315
 51
348.1327070449
  0
LINE
  5
200
330
1F
100
AcDbEntity
  8
0
  6
SLD-Сплошная
 62
     7
370
    25
100
AcDbLine
 10
369.6387167455
 20
133.2222381575
 30
0.0
 11
369.6387167455
 21
133.8239295182
 31
0.0
  0
ARC
  5
201
330
1F
100
AcDbEntity
  8
0
  6
SLD-Сплошная
 62
     7
370
    25
100
AcDbCircle
 10
333.384407457
 20
132.8140166549
 30
0.0
 40
36.25660749127645
100
AcDbArc
 50
0.6451200218
 51
34.9270566901
  0
LINE
  5
202
330
1F
100
AcDbEntity
  8
0
  6
SLD-Сплошная
 62
     7
370
    25
100
AcDbLine
 10
363.1105328724
 20
149.8006586145
 30
0.0
 11
363.110532852
 21
153.5721248486
 31
0.0
  0
LINE
  5
203
330
1F
100
AcDbEntity
  8
0
  6
SLD-Сплошная
 62
     7
370
    25
100
AcDbLine
 10
361.9777203986
 20
155.1209765774
 30
0.0
 11
361.9777203986
 21
151.3495092106
 31
0.0
  0
ARC
  5
204
330
1F
100
AcDbEntity
  8
0
  6
SLD-Сплошная
 62
     7
370
    25
100
AcDbCircle
 10
330.3575340187
 20
130.4914499117
 30
0.0
 40
40.08054104517699
100
AcDbArc
 50
37.9156603371
 51
70.4972536836
  0
LINE
  5
205
330
1F
100
AcDbEntity
  8
0
  6
SLD-Сплошная
 62
     7
370
    25
100
AcDbLine
 10
343.7385045177
 20
164.5009233324
 30
0.0
 11
343.7385044827
 21
168.2723895495
 31
0.0
  0
LINE
  5
206
330
1F
100
AcDbEntity
  8
0
  6
SLD-Сплошная
 62
     7
370
    25
100
AcDbLine
 10
341.8532215355
 20
168.8997423839
 30
0.0
 11
341.8532215355
 21
165.1282750171
 31
0.0
  0
ARC
  5
207
330
1F
100
AcDbEntity
  8
0
  6
SLD-Сплошная
 62
     7
370
    25
100
AcDbCircle
 10
329.3492986504
 20
128.0209834808
 30
0.0
 40
42.74834519582348
100
AcDbArc
 50
72.9922684618
 51
104.1885841839
  0
LINE
  5
208
330
1F
100
AcDbEntity
  8
0
  6
SLD-Сплошная
 62
     7
370
    25
100
AcDbLine
 10
316.9534317033
 20
168.9314834129
 30
0.0
 11
316.9534317033
 21
165.1600160461
 31
0.0
  0
ARC
  5
209
330
1F
100
AcDbEntity
  8
0
  6
SLD-Сплошная
 62
     7
370
    25
100
AcDbCircle
 10
328.5471162695
 20
130.1933531636
 30
0.0
 40
40.4358288777416
100
AcDbArc
 50
106.6615758831
 51
139.0498335583
  0
LINE
  5
20A
330
1F
100
AcDbEntity
  8
0
  6
SLD-Сплошная
 62
     7
370
    25
100
AcDbLine
 10
298.0067471632
 20
152.9236248623
 30
0.0
 11
298.0067471397
 21
156.6950910395
 31
0.0
  0
LINE
  5
20B
330
1F
100
AcDbEntity
  8
0
  6
SLD-Сплошная
 62
     7
370
    25
100
AcDbLine
 10
296.7892243052
 20
155.2040756701
 30
0.0
 11
296.7892243052
 21
151.4326083032
 31
0.0
  0
ARC
  5
20C
330
1F
100
AcDbEntity
  8
0
  6
SLD-Сплошная
 62
     7
370
    25
100
AcDbCircle
 10
325.5247407463
 20
132.7450287484
 30
0.0
 40
36.47106652906248
100
AcDbArc
 50
141.9895999596
 51
176.1354098623
  0
LINE
  5
20D
330
1F
100
AcDbEntity
  8
0
  6
SLD-Сплошная
 62
     7
370
    25
100
AcDbLine
 10
289.1366049358
 20
135.2031308622
 30
0.0
 11
289.1366049358
 21
135.8048222229
 31
0.0
  0
ARC
  5
20E
330
1F
100
AcDbEntity
  8
0
  6
SLD-Сплошная
 62
     7
370
    25
100
AcDbCircle
 10
325.4148438126
 20
133.0641991417
 30
0.0
 40
36.36688028605923
100
AcDbArc
 50
188.6129605754
 51
213.4119812767
  0
LINE
  5
20F
330
1F
100
AcDbEntity
  8
0
  6
SLD-Сплошная
 62
     7
370
    25
100
AcDbLine
 10
341.1891501549
 20
166.7974607202
 30
0.0
 11
341.1891501549
 21
163.2929853568
 31
0.0
  0
ARC
  5
210
330
1F
100
AcDbEntity
  8
0
  6
SLD-Сплошная
 62
     7
370
    25
100
AcDbCircle
 10
329.3494161127
 20
127.9211948488
 30
0.0
 40
40.63918491171739
100
AcDbArc
 50
73.0619299728
 51
104.1189168314
  0
LINE
  5
211
330
1F
100
AcDbEntity
  8
0
  6
SLD-Сплошная
 62
     7
370
    25
100
AcDbLine
 10
341.3507295923
 20
167.3089786325
 30
0.0
 11
341.1891501549
 21
166.7974607202
 31
0.0
  0
LINE
  5
212
330
1F
100
AcDbEntity
  8
0
  6
SLD-Сплошная
 62
     7
370
    25
100
AcDbLine
 10
341.8532215355
 20
168.8997423839
 30
0.0
 11
341.3507295923
 21
167.3089786325
 31
0.0
  0
LINE
  5
213
330
1F
100
AcDbEntity
  8
0
  6
SLD-Сплошная
 62
     7
370
    25
100
AcDbLine
 10
299.585034827
 20
155.2169703878
 30
0.0
 11
299.585034827
 21
151.7124950244
 31
0.0
  0
ARC
  5
214
330
1F
100
AcDbEntity
  8
0
  6
SLD-Сплошная
 62
     7
370
    25
100
AcDbCircle
 10
328.5656753415
 20
130.0103132683
 30
0.0
 40
38.40902352015637
100
AcDbArc
 50
107.5976703699
 51
138.9840463698
  0
LINE
  5
215
330
1F
100
AcDbEntity
  8
0
  6
SLD-Сплошная
 62
     7
370
    25
100
AcDbLine
 10
360.3382135977
 20
150.2175587314
 30
0.0
 11
360.3382135977
 21
153.7220340947
 31
0.0
  0
ARC
  5
216
330
1F
100
AcDbEntity
  8
0
  6
SLD-Сплошная
 62
     7
370
    25
100
AcDbCircle
 10
330.3358822255
 20
130.2984610966
 30
0.0
 40
38.06315357099292
100
AcDbArc
 50
37.9800517236
 51
69.3832432741
  0
LWPOLYLINE
  5
217
330
1F
100
AcDbEntity
  8
0
  6
SLD-Сплошная
 62
     7
370
    25
100
AcDbPolyline
 90
       37
 70
   128
 43
0.0
 10
329.3513474722
 20
150.8012311327
 10
327.2421784977
 20
150.7146964309
 10
325.1490615726
 20
150.4557509069
 10
323.0879265807
 20
150.0263652925
 10
321.0744600037
 20
149.4298074714
 10
319.123985538
 20
148.670617609
 10
317.2513474722
 20
147.7545735984
 10
315.4707977125
 20
146.6886470876
 10
313.7958873177
 20
145.4809504212
 10
312.2393633674
 20
144.1406748999
 10
310.8130719487
 20
142.6780208297
 10
309.5278680004
 20
141.1041198913
 10
308.3935327006
 20
139.4309504212
 10
307.4186990259
 20
137.6712462493
 10
306.6107860491
 20
135.8383997869
 10
305.975942476
 20
133.9463601023
 10
305.5189998493
 20
132.0095267599
 10
305.2434357783
 20
130.042640231
 10
305.1513474722
 20
128.0606697097
 10
305.2434357783
 20
126.0786991884
 10
305.5189998493
 20
124.1118126595
 10
305.975942476
 20
122.1749793171
 10
306.6107860491
 20
120.2829396325
 10
307.4186990259
 20
118.4500931701
 10
308.3935327006
 20
116.6903889982
 10
309.5278680004
 20
115.0172195281
 10
310.8130719487
 20
113.4433185897
 10
312.2393633674
 20
111.9806645195
 10
313.7958873177
 20
110.6403889982
 10
315.4707977125
 20
109.4326923317
 10
317.2513474722
 20
108.366765821
 10
319.123985538
 20
107.4507218104
 10
321.0744600037
 20
106.691531948
 10
323.0879265807
 20
106.0949741269
 10
325.1490615726
 20
105.6655885125
 10
327.2421784977
 20
105.4066429885
 10
329.3513474722
 20
105.3201082867
  0
LWPOLYLINE
  5
218
330
1F
100
AcDbEntity
  8
0
  6
SLD-Сплошная
 62
     7
370
    25
100
AcDbPolyline
 90
       37
 70
   128
 43
0.0
 10
329.3513474722
 20
105.3201082867
 10
331.4605164467
 20
105.4066429885
 10
333.5536333717
 20
105.6655885125
 10
335.6147683636
 20
106.0949741269
 10
337.6282349406
 20
106.691531948
 10
339.5787094063
 20
107.4507218104
 10
341.4513474722
 20
108.366765821
 10
343.2318972319
 20
109.4326923318
 10
344.9068076266
 20
110.6403889982
 10
346.4633315769
 20
111.9806645195
 10
347.8896229956
 20
113.4433185897
 10
349.1748269439
 20
115.0172195281
 10
350.3091622437
 20
116.6903889982
 10
351.2839959184
 20
118.4500931701
 10
352.0919088952
 20
120.2829396325
 10
352.7267524684
 20
122.1749793171
 10
353.1836950951
 20
124.1118126595
 10
353.459259166
 20
126.0786991884
 10
353.5513474722
 20
128.0606697097
 10
353.459259166
 20
130.042640231
 10
353.1836950951
 20
132.0095267599
 10
352.7267524684
 20
133.9463601023
 10
352.0919088952
 20
135.8383997869
 10
351.2839959184
 20
137.6712462493
 10
350.3091622437
 20
139.4309504212
 10
349.1748269439
 20
141.1041198913
 10
347.8896229956
 20
142.6780208297
 10
346.4633315769
 20
144.1406748999
 10
344.9068076266
 20
145.4809504212
 10
343.2318972319
 20
146.6886470876
 10
341.4513474722
 20
147.7545735983
 10
339.5787094063
 20
148.670617609
 10
337.6282349406
 20
149.4298074714
 10
335.6147683636
 20
150.0263652925
 10
333.5536333717
 20
150.4557509069
 10
331.4605164466
 20
150.7146964309
 10
329.3513474722
 20
150.8012311327
  0
LINE
  5
219
330
1F
100
AcDbEntity
  8
0
  6
SLD-Сплошная
 62
     7
370
    25
100
AcDbLine
 10
299.585034827
 20
155.2169703878
 30
0.0
 11
298.0067471397
 21
156.6950910395
 31
0.0
  0
LINE
  5
21A
330
1F
100
AcDbEntity
  8
0
  6
SLD-Сплошная
 62
     7
370
    25
100
AcDbLine
 10
361.9777203986
 20
155.1209765774
 30
0.0
 11
360.7371324401
 21
154.062418071
 31
0.0
  0
LINE
  5
21B
330
1F
100
AcDbEntity
  8
0
  6
SLD-Сплошная
 62
     7
370
    25
100
AcDbLine
 10
360.7371324401
 20
154.062418071
 30
0.0
 11
360.3382135977
 21
153.7220340947
 31
0.0
  0
LINE
  5
21C
330
1F
100
AcDbEntity
  8
0
  6
SLD-Сплошная
 62
     7
370
    25
100
AcDbLine
 10
291.1441232894
 20
131.5685331841
 30
0.0
 11
291.1441226072
 21
135.0730079986
 31
0.0
  0
ARC
  5
21D
330
1F
100
AcDbEntity
  8
0
  6
SLD-Сплошная
 62
     7
370
    25
100
AcDbCircle
 10
325.5231429045
 20
132.4627028088
 30
0.0
 40
34.4779745603872
100
AcDbArc
 50
146.4495246249
 51
175.6580188039
  0
ARC
  5
21E
330
1F
100
AcDbEntity
  8
0
  6
SLD-Сплошная
 62
     7
370
    25
100
AcDbCircle
 10
333.2863181896
 20
132.4928392106
 30
0.0
 40
34.36640986771445
100
AcDbArc
 50
1.1633165316
 51
30.1124250338
  0
LINE
  5
21F
330
1F
100
AcDbEntity
  8
0
  6
SLD-Сплошная
 62
     7
370
    25
100
AcDbLine
 10
367.6456446897
 20
133.1905566742
 30
0.0
 11
367.6456440123
 21
129.6860818932
 31
0.0
  0
SPLINE
  5
220
330
1F
100
AcDbEntity
  8
0
  6
SLD-Сплошная
 62
     7
370
    25
100
AcDbSpline
210
0.0
220
0.0
230
1.0
 70
     8
 71
     3
 72
    13
 73
     9
 74
     0
 42
0.00000001
 43
0.00000001
 40
0.0
 40
0.0
 40
0.0
 40
0.0
 40
0.2055329452817684
 40
0.4477114455643201
 40
0.5946706304868328
 40
0.7526135868967917
 40
0.9154372563904172
 40
1.0
 40
1.0
 40
1.0
 40
1.0
 10
289.8621449374641
 20
127.8633801411593
 30
0.0
 10
289.7108418359767
 20
127.8799498811757
 30
0.0
 10
289.3812590034414
 20
127.9160436677227
 30
0.0
 10
288.9212722987861
 20
127.8832470569411
 30
0.0
 10
288.5243937469781
 20
127.922058768589
 30
0.0
 10
288.2277734365749
 20
127.9915954435781
 30
0.0
 10
288.0316348958559
 20
128.0817583833187
 30
0.0
 10
287.9771200521322
 20
128.1467975229077
 30
0.0
 10
287.9584855414698
 20
128.1690294960248
 30
0.0
  0
SPLINE
  5
221
330
1F
100
AcDbEntity
  8
0
  6
SLD-Сплошная
 62
     7
370
    25
100
AcDbSpline
210
0.0
220
0.0
230
1.0
 70
     8
 71
     3
 72
    10
 73
     6
 74
     0
 42
0.00000001
 43
0.00000001
 40
0.0
 40
0.0
 40
0.0
 40
0.0
 40
0.5
 40
0.5
 40
1.0
 40
1.0
 40
1.0
 40
1.0
 10
287.9878683884839
 20
130.2085466667927
 30
0.0
 10
287.9942372167471
 20
130.0174320409396
 30
0.0
 10
288.5025848914362
 20
129.8899583496355
 30
0.0
 10
289.3158129410666
 20
129.7617198109874
 30
0.0
 10
289.6280510883167
 20
129.7493263950232
 30
0.0
 10
289.9171571598255
 20
129.8375164826951
 30
0.0
  0
SPLINE
  5
222
330
1F
100
AcDbEntity
  8
0
  6
SLD-Сплошная
 62
     7
370
    25
100
AcDbSpline
210
0.0
220
0.0
230
1.0
 70
     8
 71
     3
 72
     8
 73
     4
 74
     0
 42
0.00000001
 43
0.00000001
 40
0.0
 40
0.0
 40
0.0
 40
0.0
 40
1.0
 40
1.0
 40
1.0
 40
1.0
 10
289.9171571598255
 20
129.8375164826951
 30
0.0
 10
291.3379930855608
 20
130.3043540444344
 30
0.0
 10
292.391871790733
 20
130.801814939024
 30
0.0
 10
292.3582416086253
 20
130.9885227313274
 30
0.0
  0
LINE
  5
223
330
1F
100
AcDbEntity
  8
0
  6
SLD-Сплошная
 62
     7
370
    25
100
AcDbLine
 10
289.1366049358
 20
135.8048222229
 30
0.0
 11
288.3518278857
 21
135.7227398581
 31
0.0
  0
SPLINE
  5
224
330
1F
100
AcDbEntity
  8
0
  6
SLD-Сплошная
 62
     7
370
    25
100
AcDbSpline
210
0.0
220
0.0
230
1.0
 70
     8
 71
     3
 72
    11
 73
     7
 74
     0
 42
0.00000001
 43
0.00000001
 40
-0.0897866234859179
 40
-0.0897866234859179
 40
-0.0897866234859179
 40
-0.0897866234859179
 40
0.0
 40
0.0
 40
0.0
 40
1.0
 40
1.0
 40
1.0
 40
1.0
 10
291.1441210152453
 20
135.0730067185316
 30
0.0
 10
291.0889811180251
 20
135.0765744060851
 30
0.0
 10
291.0338412208049
 20
135.0801420936388
 30
0.0
 10
290.9787013235847
 20
135.0837097811924
 30
0.0
 10
290.3645798088265
 20
135.1234449601654
 30
0.0
 10
289.7505517528019
 20
135.1632552612447
 30
0.0
 10
289.1366049357795
 20
135.2031308622258
 30
0.0
  0
SPLINE
  5
225
330
1F
100
AcDbEntity
  8
0
  6
SLD-Сплошная
 62
     7
370
    25
100
AcDbSpline
210
0.0
220
0.0
230
1.0
 70
     8
 71
     3
 72
    10
 73
     6
 74
     0
 42
0.00000001
 43
0.00000001
 40
0.0
 40
0.0
 40
0.0
 40
0.0
 40
0.5
 40
0.5
 40
1.0
 40
1.0
 40
1.0
 40
1.0
 10
368.8405500068422
 20
127.8954708691591
 30
0.0
 10
369.1270228552871
 20
127.7925713246945
 30
0.0
 10
369.4381429596173
 20
127.7899935768769
 30
0.0
 10
370.2575202399412
 20
127.8785717391136
 30
0.0
 10
370.7637215674409
 20
127.9811161073863
 30
0.0
 10
370.7695573560086
 20
128.1715610514875
 30
0.0
  0
SPLINE
  5
226
330
1F
100
AcDbEntity
  8
0
  6
SLD-Сплошная
 62
     7
370
    25
100
AcDbSpline
210
0.0
220
0.0
230
1.0
 70
     8
 71
     3
 72
    13
 73
     9
 74
     0
 42
0.00000001
 43
0.00000001
 40
0.0
 40
0.0
 40
0.0
 40
0.0
 40
0.0820511723318636
 40
0.2455723814217427
 40
0.4040589104866764
 40
0.5511822264721326
 40
0.7939821094784312
 40
1.0
 40
1.0
 40
1.0
 40
1.0
 10
370.6870343015759
 20
126.1310472302269
 30
0.0
 10
370.6688789116779
 20
126.1104501266538
 30
0.0
 10
370.6145413293354
 20
126.0488046969656
 30
0.0
 10
370.4189263239209
 20
125.9689991857129
 30
0.0
 10
370.1226824914668
 20
125.9141356128723
 30
0.0
 10
369.7269443180477
 20
125.8949332028692
 30
0.0
 10
369.2701811950567
 20
125.9500819834086
 30
0.0
 10
368.9380114791554
 20
125.9303787665428
 30
0.0
 10
368.7855377844815
 20
125.9213345276231
 30
0.0
  0
SPLINE
  5
227
330
1F
100
AcDbEntity
  8
0
  6
SLD-Сплошная
 62
     7
370
    25
100
AcDbSpline
210
0.0
220
0.0
230
1.0
 70
     8
 71
     3
 72
     8
 73
     4
 74
     0
 42
0.00000001
 43
0.00000001
 40
0.0
 40
0.0
 40
0.0
 40
0.0
 40
1.0
 40
1.0
 40
1.0
 40
1.0
 10
366.4396998111349
 20
129.1656212346111
 30
0.0
 10
366.4059458649009
 20
128.980571544501
 30
0.0
 10
367.4424525977071
 20
128.4316731263551
 30
0.0
 10
368.8405500068391
 20
127.8954708691537
 30
0.0
  0
SPLINE
  5
228
330
1F
100
AcDbEntity
  8
0
  6
SLD-Сплошная
 62
     7
370
    25
100
AcDbSpline
210
0.0
220
0.0
230
1.0
 70
     8
 71
     3
 72
    12
 73
     8
 74
     0
 42
0.00000001
 43
0.00000001
 40
0.0
 40
0.0
 40
0.0
 40
0.0
 40
0.1111392951877041
 40
0.2559934522507161
 40
0.4359858830523781
 40
0.6838230581526519
 40
1.0
 40
1.0
 40
1.0
 40
1.0
 10
292.1018274034982
 20
127.4896005748817
 30
0.0
 10
292.0376972124421
 20
127.4873267487962
 30
0.0
 10
291.8899825002496
 20
127.482089316001
 30
0.0
 10
291.5842090041771
 20
127.5158111260335
 30
0.0
 10
291.1560516913072
 20
127.5788002747898
 30
0.0
 10
290.573990936927
 20
127.6907609433749
 30
0.0
 10
290.117849978917
 20
127.8013729104411
 30
0.0
 10
289.8621449374627
 20
127.8633801411607
 30
0.0
  0
ARC
  5
229
330
1F
100
AcDbEntity
  8
0
  6
SLD-Сплошная
 62
     7
370
    25
100
AcDbCircle
 10
288.4000383137
 20
135.2201410193
 30
0.0
 40
0.5049057715058046
100
AcDbArc
 50
95.47917822
 51
144.7191209909
  0
ARC
  5
22A
330
1F
100
AcDbEntity
  8
0
  6
SLD-Сплошная
 62
     7
370
    25
100
AcDbCircle
 10
289.4602896418
 20
134.4845257537
 30
0.0
 40
1.7953409706427
100
AcDbArc
 50
145.0982702477
 51
179.8952659659
  0
LINE
  5
22B
330
1F
100
AcDbEntity
  8
0
  6
SLD-Сплошная
 62
     7
370
    25
100
AcDbLine
 10
370.4178467282
 20
133.7033645352
 30
0.0
 11
369.6387167455
 21
133.8239295182
 31
0.0
  0
SPLINE
  5
22C
330
1F
100
AcDbEntity
  8
0
  6
SLD-Сплошная
 62
     7
370
    25
100
AcDbSpline
210
0.0
220
0.0
230
1.0
 70
     8
 71
     3
 72
    11
 73
     7
 74
     0
 42
0.00000001
 43
0.00000001
 40
0.0
 40
0.0
 40
0.0
 40
0.0
 40
1.0
 40
1.0
 40
1.0
 40
1.089786618789407
 40
1.089786618789407
 40
1.089786618789407
 40
1.089786618789407
 10
369.6387167454748
 20
133.2222381575241
 30
0.0
 10
369.0291877729102
 20
133.2124682806217
 30
0.0
 10
368.4195781169371
 20
133.2027676867981
 30
0.0
 10
367.8098756413748
 20
133.1931467974571
 30
0.0
 10
367.7551325176265
 20
133.1922829703335
 30
0.0
 10
367.7003893938783
 20
133.1914191432098
 30
0.0
 10
367.64564627013
 20
133.1905553160861
 30
0.0
  0
LWPOLYLINE
  5
22D
330
1F
100
AcDbEntity
  8
0
  6
SLD-Сплошная
 62
     7
370
    25
100
AcDbPolyline
 90
        9
 70
   128
 43
0.0
 10
299.7361165317
 20
130.6741302913
 10
298.9414917533
 20
130.7685854074
 10
298.1470107544
 20
130.8636218633
 10
297.3526773003
 20
130.9592392086
 10
296.5584951562
 20
131.05543699
 10
295.7644680861
 20
131.1522147516
 10
294.9705998534
 20
131.2495720348
 10
294.176894221
 20
131.3475083779
 10
293.3833549507
 20
131.446023317
  0
SPLINE
  5
22E
330
1F
100
AcDbEntity
  8
0
  6
SLD-Сплошная
 62
     7
370
    25
100
AcDbSpline
210
0.0
220
0.0
230
1.0
 70
     8
 71
     3
 72
    11
 73
     7
 74
     0
 42
0.00000001
 43
0.00000001
 40
0.0
 40
0.0
 40
0.0
 40
0.0
 40
0.444578725376761
 40
0.7464582516611487
 40
0.8886799398631083
 40
0.9999999999999999
 40
0.9999999999999999
 40
0.9999999999999999
 40
0.9999999999999999
 10
368.7855377844785
 20
125.9213345276183
 30
0.0
 10
368.4195490502556
 20
125.8525990961006
 30
0.0
 10
367.8050452625537
 20
125.7371906721046
 30
0.0
 10
367.114604077638
 20
125.6632821381767
 30
0.0
 10
366.7156115607806
 20
125.6416331480071
 30
0.0
 10
366.5667571762335
 20
125.6539760994631
 30
0.0
 10
366.501401158347
 20
125.6593953967085
 30
0.0
  0
ARC
  5
22F
330
1F
100
AcDbEntity
  8
0
  6
SLD-Сплошная
 62
     7
370
    25
100
AcDbCircle
 10
370.3458664555
 20
133.2077393166
 30
0.0
 40
0.5008248365847182
100
AcDbArc
 50
32.2222464639
 51
81.7366360823
  0
ARC
  5
230
330
1F
100
AcDbEntity
  8
0
  6
SLD-Сплошная
 62
     7
370
    25
100
AcDbCircle
 10
369.2448266071
 20
132.5315124688
 30
0.0
 40
1.792919506686403
100
AcDbArc
 50
0.1019815838
 51
31.7428540208
  0
LWPOLYLINE
  5
231
330
1F
100
AcDbEntity
  8
0
  6
SLD-Сплошная
 62
     7
370
    25
100
AcDbPolyline
 90
        9
 70
   128
 43
0.0
 10
365.4108138984
 20
129.6736639992
 10
364.6143542845
 20
129.6142737131
 10
363.8177276964
 20
129.5554702253
 10
363.0209379097
 20
129.4972538143
 10
362.2239887009
 20
129.4396247562
 10
361.4268838474
 20
129.382583324
 10
360.6296271272
 20
129.3261297881
 10
359.832222319
 20
129.2702644162
 10
359.0346732024
 20
129.2149874729
  0
LINE
  5
232
330
1F
100
AcDbEntity
  8
0
  6
SLD-Сплошная
 62
     7
370
    25
100
AcDbLine
 10
300.725099945
 20
128.2833951037
 30
0.0
 11
301.6536942585
 21
128.3317498147
 31
0.0
  0
LINE
  5
233
330
1F
100
AcDbEntity
  8
0
  6
SLD-Сплошная
 62
     7
370
    25
100
AcDbLine
 10
342.0013507729
 20
175.685286203
 30
0.0
 11
316.5013507734
 21
175.2637268281
 31
0.0
  0
LINE
  5
234
330
1F
100
AcDbEntity
  8
0
  6
SLD-Сплошная
 62
     7
370
    25
100
AcDbLine
 10
316.5013507734
 20
175.2637268281
 30
0.0
 11
316.5013507734
 21
170.4190628814
 31
0.0
  0
LINE
  5
235
330
1F
100
AcDbEntity
  8
0
  6
SLD-Сплошная
 62
     7
370
    25
100
AcDbLine
 10
342.0013507729
 20
175.685286203
 30
0.0
 11
342.0013507729
 21
170.4817595753
 31
0.0
  0
LINE
  5
236
330
1F
100
AcDbEntity
  8
0
  6
SLD-Сплошная
 62
     7
370
    25
100
AcDbLine
 10
316.5013507734
 20
175.2637261225
 30
0.0
 11
316.5013507734
 21
180.152975118
 31
0.0
  0
LINE
  5
237
330
1F
100
AcDbEntity
  8
0
  6
SLD-Сплошная
 62
     7
370
    25
100
AcDbLine
 10
342.0013507729
 20
175.6826485852
 30
0.0
 11
342.0013507729
 21
180.152975118
 31
0.0
  0
LINE
  5
238
330
1F
100
AcDbEntity
  8
0
  6
SLD-Сплошная
 62
     7
370
    25
100
AcDbLine
 10
347.7513507729
 20
173.4452174869
 30
0.0
 11
347.7513507729
 21
179.7166175906
 31
0.0
  0
LINE
  5
239
330
1F
100
AcDbEntity
  8
0
  6
SLD-Сплошная
 62
     7
370
    25
100
AcDbLine
 10
310.7513507729
 20
173.4452174869
 30
0.0
 11
310.7513507729
 21
179.7166175906
 31
0.0
  0
LINE
  5
23A
330
1F
100
AcDbEntity
  8
0
  6
SLD-Сплошная
 62
     7
370
    25
100
AcDbLine
 10
347.7513507729
 20
168.217434917
 30
0.0
 11
347.7513507729
 21
173.4452174869
 31
0.0
  0
LINE
  5
23B
330
1F
100
AcDbEntity
  8
0
  6
SLD-Сплошная
 62
     7
370
    25
100
AcDbLine
 10
310.7513507729
 20
168.1202917689
 30
0.0
 11
310.7513507729
 21
173.4452174869
 31
0.0
  0
LINE
  5
23C
330
1F
100
AcDbEntity
  8
0
  6
SLD-Сплошная
 62
     7
370
    25
100
AcDbLine
 10
347.7513507729
 20
191.4922089577
 30
0.0
 11
342.0013507729
 21
191.4922089577
 31
0.0
  0
LINE
  5
23D
330
1F
100
AcDbEntity
  8
0
  6
SLD-Сплошная
 62
     7
370
    25
100
AcDbLine
 10
347.7513507729
 20
191.4922089577
 30
0.0
 11
347.7513507729
 21
179.7166175906
 31
0.0
  0
LINE
  5
23E
330
1F
100
AcDbEntity
  8
0
  6
SLD-Сплошная
 62
     7
370
    25
100
AcDbLine
 10
342.0013507729
 20
180.152975118
 30
0.0
 11
342.0013507729
 21
191.4922089577
 31
0.0
  0
LINE
  5
23F
330
1F
100
AcDbEntity
  8
0
  6
SLD-Сплошная
 62
     7
370
    25
100
AcDbLine
 10
316.5013507729
 20
191.4922089577
 30
0.0
 11
310.7513507729
 21
191.4922089577
 31
0.0
  0
LINE
  5
240
330
1F
100
AcDbEntity
  8
0
  6
SLD-Сплошная
 62
     7
370
    25
100
AcDbLine
 10
316.5013507729
 20
191.4922089577
 30
0.0
 11
316.5013507729
 21
180.152975118
 31
0.0
  0
LINE
  5
241
330
1F
100
AcDbEntity
  8
0
  6
SLD-Сплошная
 62
     7
370
    25
100
AcDbLine
 10
310.7513507729
 20
191.4922089577
 30
0.0
 11
310.7513507729
 21
179.7166175906
 31
0.0
  0
LINE
  5
242
330
1F
100
AcDbEntity
  8
0
  6
SLD-Сплошная
 62
     7
370
    25
100
AcDbLine
 10
370.2703205242
 20
183.3440579143
 30
0.0
 11
370.2672391572
 21
183.331807422
 31
0.0
  0
SPLINE
  5
243
330
1F
100
AcDbEntity
  8
0
  6
SLD-Сплошная
 62
     7
370
    25
100
AcDbSpline
210
0.0
220
0.0
230
1.0
 70
     8
 71
     3
 72
    20
 73
    16
 74
     0
 42
0.00000001
 43
0.00000001
 40
0.0
 40
0.0
 40
0.0
 40
0.0
 40
0.0710663672462004
 40
0.142132734492401
 40
0.213199101738601
 40
0.284265468984801
 40
0.284265468984801
 40
0.373732285361701
 40
0.463199101738601
 40
0.552665918115501
 40
0.642132734492401
 40
0.7315995508693
 40
0.8210663672462
 40
0.9105331836231
 40
1.0
 40
1.0
 40
1.0
 40
1.0
 10
365.372665813745
 20
185.3412160008853
 30
0.0
 10
365.2775979150534
 20
185.1641930171158
 30
0.0
 10
365.1143852643538
 20
184.7649369424271
 30
0.0
 10
365.0195862382939
 20
184.0637740784738
 30
0.0
 10
365.1143852643536
 20
183.362611214522
 30
0.0
 10
365.2775979150524
 20
182.9633551398344
 30
0.0
 10
365.4923486196218
 20
182.5634745175344
 30
0.0
 10
365.790393018758
 20
182.1598801825331
 30
0.0
 10
366.3699407254583
 20
181.7055986667828
 30
0.0
 10
367.0384142857709
 20
181.4271742987999
 30
0.0
 10
367.7513507728896
 20
181.3319264017504
 30
0.0
 10
368.4642872600082
 20
181.4271742987999
 30
0.0
 10
369.132760820321
 20
181.7055986667828
 30
0.0
 10
369.7123085270211
 20
182.159880182533
 30
0.0
 10
370.0103529261573
 20
182.5634745175344
 30
0.0
 10
370.1300357320353
 20
182.7863321560646
 30
0.0
  0
LINE
  5
244
330
1F
100
AcDbEntity
  8
0
  6
SLD-Сплошная
 62
     7
370
    25
100
AcDbLine
 10
283.226217949
 20
91.5386412546
 30
0.0
 11
375.2764835968
 21
91.5386412546
 31
0.0
  0
LINE
  5
245
330
1F
100
AcDbEntity
  8
0
  6
SLD-Сплошная
 62
     7
370
    25
100
AcDbLine
 10
283.226217949
 20
191.5889069024
 30
0.0
 11
283.226217949
 21
91.5386412546
 31
0.0
  0
LINE
  5
246
330
1F
100
AcDbEntity
  8
0
  6
SLD-Сплошная
 62
     7
370
    25
100
AcDbLine
 10
375.2764835968
 20
191.5889069024
 30
0.0
 11
283.226217949
 21
191.5889069024
 31
0.0
  0
LINE
  5
247
330
1F
100
AcDbEntity
  8
0
  6
SLD-Сплошная
 62
     7
370
    25
100
AcDbLine
 10
375.2764835968
 20
91.5386412546
 30
0.0
 11
375.2764835968
 21
191.5889069024
 31
0.0
  0
SPLINE
  5
248
330
1F
100
AcDbEntity
  8
0
  6
SLD-Сплошная
 62
     7
370
    25
100
AcDbSpline
210
0.0
220
0.0
230
1.0
 70
     8
 71
     3
 72
    20
 73
    16
 74
     0
 42
0.00000001
 43
0.00000001
 40
0.0
 40
0.0
 40
0.0
 40
0.0
 40
0.0710663672462002
 40
0.1421327344924
 40
0.213199101738601
 40
0.284265468984801
 40
0.284265468984801
 40
0.373732285361701
 40
0.463199101738601
 40
0.552665918115501
 40
0.642132734492401
 40
0.7315995508693
 40
0.8210663672462
 40
0.9105331836231
 40
1.0
 40
1.0
 40
1.0
 40
1.0
 10
370.1300357320357
 20
182.7863321560667
 30
0.0
 10
370.2251036307271
 20
182.9633551398366
 30
0.0
 10
370.3883162814257
 20
183.3626112145244
 30
0.0
 10
370.4831153074851
 20
184.0637740784763
 30
0.0
 10
370.3883162814257
 20
184.7649369424281
 30
0.0
 10
370.2251036307272
 20
185.164193017116
 30
0.0
 10
370.0103529261581
 20
185.5640736394163
 30
0.0
 10
369.7123085270221
 20
185.967667974418
 30
0.0
 10
369.1327608203221
 20
186.4219494901693
 30
0.0
 10
368.464287260009
 20
186.7003738581525
 30
0.0
 10
367.7513507728896
 20
186.7956217552024
 30
0.0
 10
367.0384142857702
 20
186.7003738581525
 30
0.0
 10
366.3699407254572
 20
186.4219494901693
 30
0.0
 10
365.7903930187571
 20
185.967667974418
 30
0.0
 10
365.4923486196211
 20
185.5640736394163
 30
0.0
 10
365.3726658137434
 20
185.3412160008858
 30
0.0
  0
SPLINE
  5
249
330
1F
100
AcDbEntity
  8
0
  6
SLD-Сплошная
 62
     7
370
    25
100
AcDbSpline
210
0.0
220
0.0
230
1.0
 70
     8
 71
     3
 72
    20
 73
    16
 74
     0
 42
0.00000001
 43
0.00000001
 40
0.0
 40
0.0
 40
0.0
 40
0.0
 40
0.071066367246201
 40
0.142132734492401
 40
0.213199101738601
 40
0.284265468984802
 40
0.284265468984802
 40
0.373732285361701
 40
0.463199101738601
 40
0.552665918115501
 40
0.642132734492401
 40
0.731599550869301
 40
0.8210663672462
 40
0.9105331836231
 40
1.0
 40
1.0
 40
1.0
 40
1.0
 10
293.1300357320342
 20
185.3412160008855
 30
0.0
 10
293.2251036307258
 20
185.164193017116
 30
0.0
 10
293.3883162814254
 20
184.7649369424274
 30
0.0
 10
293.4831153074851
 20
184.0637740784741
 30
0.0
 10
293.3883162814256
 20
183.3626112145222
 30
0.0
 10
293.2251036307267
 20
182.9633551398346
 30
0.0
 10
293.0103529261573
 20
182.5634745175346
 30
0.0
 10
292.7123085270211
 20
182.1598801825333
 30
0.0
 10
292.1327608203209
 20
181.705598666783
 30
0.0
 10
291.4642872600083
 20
181.4271742988002
 30
0.0
 10
290.7513507728896
 20
181.3319264017506
 30
0.0
 10
290.0384142857709
 20
181.4271742988001
 30
0.0
 10
289.3699407254582
 20
181.705598666783
 30
0.0
 10
288.7903930187581
 20
182.1598801825333
 30
0.0
 10
288.4923486196217
 20
182.5634745175346
 30
0.0
 10
288.3726658137439
 20
182.7863321560649
 30
0.0
  0
SPLINE
  5
24A
330
1F
100
AcDbEntity
  8
0
  6
SLD-Сплошная
 62
     7
370
    25
100
AcDbSpline
210
0.0
220
0.0
230
1.0
 70
     8
 71
     3
 72
    20
 73
    16
 74
     0
 42
0.00000001
 43
0.00000001
 40
0.0
 40
0.0
 40
0.0
 40
0.0
 40
0.0710663672462
 40
0.1421327344924
 40
0.213199101738601
 40
0.284265468984801
 40
0.284265468984801
 40
0.373732285361701
 40
0.463199101738601
 40
0.5526659181155
 40
0.6421327344924
 40
0.731599550869301
 40
0.8210663672462
 40
0.9105331836231
 40
1.0
 40
1.0
 40
1.0
 40
1.0
 10
288.3726658137434
 20
182.786332156067
 30
0.0
 10
288.277597915052
 20
182.9633551398369
 30
0.0
 10
288.1143852643535
 20
183.3626112145247
 30
0.0
 10
288.019586238294
 20
184.0637740784765
 30
0.0
 10
288.1143852643535
 20
184.7649369424284
 30
0.0
 10
288.277597915052
 20
185.1641930171162
 30
0.0
 10
288.4923486196211
 20
185.5640736394165
 30
0.0
 10
288.7903930187571
 20
185.9676679744183
 30
0.0
 10
289.3699407254571
 20
186.4219494901694
 30
0.0
 10
290.0384142857702
 20
186.7003738581528
 30
0.0
 10
290.7513507728896
 20
186.7956217552026
 30
0.0
 10
291.464287260009
 20
186.7003738581528
 30
0.0
 10
292.1327608203218
 20
186.4219494901694
 30
0.0
 10
292.7123085270221
 20
185.9676679744183
 30
0.0
 10
293.0103529261581
 20
185.5640736394165
 30
0.0
 10
293.1300357320358
 20
185.341216000886
 30
0.0
  0
SPLINE
  5
24B
330
1F
100
AcDbEntity
  8
0
  6
SLD-Сплошная
 62
     7
370
    25
100
AcDbSpline
210
0.0
220
0.0
230
1.0
 70
     8
 71
     3
 72
    20
 73
    16
 74
     0
 42
0.00000001
 43
0.00000001
 40
0.0
 40
0.0
 40
0.0
 40
0.0
 40
0.0710663672462
 40
0.1421327344924
 40
0.213199101738601
 40
0.284265468984801
 40
0.284265468984801
 40
0.373732285361701
 40
0.4631991017386
 40
0.5526659181155
 40
0.642132734492401
 40
0.7315995508693
 40
0.8210663672462
 40
0.9105331836231
 40
1.0
 40
1.0
 40
1.0
 40
1.0
 10
365.3726658137447
 20
100.3412160008852
 30
0.0
 10
365.2775979150531
 20
100.1641930171158
 30
0.0
 10
365.1143852643535
 20
99.76493694242717
 30
0.0
 10
365.0195862382936
 20
99.06377407847386
 30
0.0
 10
365.1143852643532
 20
98.36261121452198
 30
0.0
 10
365.2775979150521
 20
97.96335513983436
 30
0.0
 10
365.4923486196215
 20
97.56347451753436
 30
0.0
 10
365.7903930187578
 20
97.15988018253307
 30
0.0
 10
366.369940725458
 20
96.70559866678275
 30
0.0
 10
367.0384142857706
 20
96.42717429879986
 30
0.0
 10
367.7513507728892
 20
96.33192640175025
 30
0.0
 10
368.4642872600081
 20
96.42717429879986
 30
0.0
 10
369.1327608203205
 20
96.70559866678275
 30
0.0
 10
369.7123085270208
 20
97.15988018253304
 30
0.0
 10
370.0103529261571
 20
97.56347451753433
 30
0.0
 10
370.130035732035
 20
97.78633215606463
 30
0.0
  0
SPLINE
  5
24C
330
1F
100
AcDbEntity
  8
0
  6
SLD-Сплошная
 62
     7
370
    25
100
AcDbSpline
210
0.0
220
0.0
230
1.0
 70
     8
 71
     3
 72
    20
 73
    16
 74
     0
 42
0.00000001
 43
0.00000001
 40
0.0
 40
0.0
 40
0.0
 40
0.0
 40
0.0710663672462
 40
0.1421327344924
 40
0.2131991017386
 40
0.284265468984801
 40
0.284265468984801
 40
0.3737322853617
 40
0.4631991017386
 40
0.5526659181155
 40
0.6421327344924
 40
0.7315995508693
 40
0.8210663672462
 40
0.9105331836231
 40
1.0
 40
1.0
 40
1.0
 40
1.0
 10
370.1300357320355
 20
97.78633215606675
 30
0.0
 10
370.2251036307268
 20
97.96335513983665
 30
0.0
 10
370.3883162814254
 20
98.36261121452445
 30
0.0
 10
370.4831153074848
 20
99.06377407847624
 30
0.0
 10
370.3883162814255
 20
99.76493694242814
 30
0.0
 10
370.2251036307268
 20
100.1641930171159
 30
0.0
 10
370.0103529261577
 20
100.5640736394163
 30
0.0
 10
369.7123085270218
 20
100.9676679744181
 30
0.0
 10
369.1327608203217
 20
101.4219494901691
 30
0.0
 10
368.4642872600087
 20
101.7003738581525
 30
0.0
 10
367.7513507728893
 20
101.7956217552023
 30
0.0
 10
367.03841428577
 20
101.7003738581526
 30
0.0
 10
366.3699407254568
 20
101.4219494901692
 30
0.0
 10
365.7903930187568
 20
100.9676679744181
 30
0.0
 10
365.4923486196208
 20
100.5640736394163
 30
0.0
 10
365.3726658137431
 20
100.3412160008858
 30
0.0
  0
SPLINE
  5
24D
330
1F
100
AcDbEntity
  8
0
  6
SLD-Сплошная
 62
     7
370
    25
100
AcDbSpline
210
0.0
220
0.0
230
1.0
 70
     8
 71
     3
 72
    20
 73
    16
 74
     0
 42
0.00000001
 43
0.00000001
 40
0.0
 40
0.0
 40
0.0
 40
0.0
 40
0.0710663672602888
 40
0.142132734505411
 40
0.213199101750533
 40
0.284265468995656
 40
0.284265468995656
 40
0.373732285371199
 40
0.463199101746742
 40
0.5526659181222849
 40
0.642132734497828
 40
0.731599550873371
 40
0.821066367248914
 40
0.910533183624457
 40
1.0
 40
1.0
 40
1.0
 40
1.0
 10
293.130035732035
 20
100.3412160008833
 30
0.0
 10
293.2251036307264
 20
100.1641930171136
 30
0.0
 10
293.3883162814253
 20
99.76493694242599
 30
0.0
 10
293.4831153074849
 20
99.06377407847411
 30
0.0
 10
293.3883162814253
 20
98.36261121452222
 30
0.0
 10
293.2251036307264
 20
97.96335513983462
 30
0.0
 10
293.0103529261571
 20
97.56347451753462
 30
0.0
 10
292.7123085270208
 20
97.15988018253333
 30
0.0
 10
292.1327608203206
 20
96.70559866678302
 30
0.0
 10
291.4642872600079
 20
96.4271742988001
 30
0.0
 10
290.7513507728893
 20
96.33192640175051
 30
0.0
 10
290.0384142857706
 20
96.42717429880013
 30
0.0
 10
289.369940725458
 20
96.70559866678302
 30
0.0
 10
288.7903930187578
 20
97.15988018253333
 30
0.0
 10
288.4923486196215
 20
97.56347451753464
 30
0.0
 10
288.3726658137435
 20
97.78633215606494
 30
0.0
  0
SPLINE
  5
24E
330
1F
100
AcDbEntity
  8
0
  6
SLD-Сплошная
 62
     7
370
    25
100
AcDbSpline
210
0.0
220
0.0
230
1.0
 70
     8
 71
     3
 72
    20
 73
    16
 74
     0
 42
0.00000001
 43
0.00000001
 40
0.0
 40
0.0
 40
0.0
 40
0.0
 40
0.0710663672462001
 40
0.1421327344924
 40
0.213199101738601
 40
0.284265468984801
 40
0.284265468984801
 40
0.373732285361701
 40
0.4631991017386
 40
0.5526659181155
 40
0.6421327344924
 40
0.7315995508693
 40
0.8210663672462
 40
0.9105331836231
 40
1.0
 40
1.0
 40
1.0
 40
1.0
 10
288.372665813743
 20
97.78633215606702
 30
0.0
 10
288.2775979150516
 20
97.96335513983692
 30
0.0
 10
288.1143852643531
 20
98.36261121452472
 30
0.0
 10
288.0195862382936
 20
99.06377407847653
 30
0.0
 10
288.1143852643531
 20
99.76493694242852
 30
0.0
 10
288.2775979150517
 20
100.1641930171162
 30
0.0
 10
288.4923486196208
 20
100.5640736394165
 30
0.0
 10
288.7903930187567
 20
100.9676679744183
 30
0.0
 10
289.3699407254568
 20
101.4219494901694
 30
0.0
 10
290.0384142857699
 20
101.7003738581528
 30
0.0
 10
290.7513507728893
 20
101.7956217552026
 30
0.0
 10
291.4642872600086
 20
101.7003738581528
 30
0.0
 10
292.1327608203217
 20
101.4219494901694
 30
0.0
 10
292.7123085270218
 20
100.9676679744183
 30
0.0
 10
293.0103529261578
 20
100.5640736394165
 30
0.0
 10
293.1300357320354
 20
100.341216000886
 30
0.0
  0
LINE
  5
24F
330
1F
100
AcDbEntity
  8
0
  6
SLD-Сплошная
 62
     7
370
    25
100
AcDbLine
 10
370.2672391572
 20
98.331807422
 30
0.0
 11
370.2703205242
 21
98.3440579143
 31
0.0
  0
LINE
  5
250
330
1F
100
AcDbEntity
  8
0
  6
SLD-Сплошная
 62
     7
370
    25
100
AcDbLine
 10
288.2323810215
 20
183.3440579143
 30
0.0
 11
288.2354623886
 21
183.331807422
 31
0.0
  0
LINE
  5
251
330
1F
100
AcDbEntity
  8
0
  6
SLD-Сплошная
 62
     7
370
    25
100
AcDbLine
 10
288.2354623886
 20
98.331807422
 30
0.0
 11
288.2323810215
 21
98.3440579143
 31
0.0
  0
LWPOLYLINE
  5
252
330
1F
100
AcDbEntity
  8
0
  6
SLD-Сплошная
 62
     7
370
    25
100
AcDbPolyline
 90
        3
 70
   128
 43
0.0
 10
370.4324151983
 20
99.0746267245
 10
370.3408387394
 20
98.3790344605
 10
370.1060676915
 20
97.7910163064
  0
LWPOLYLINE
  5
253
330
1F
100
AcDbEntity
  8
0
  6
SLD-Сплошная
 62
     7
370
    25
100
AcDbPolyline
 90
        3
 70
   128
 43
0.0
 10
365.0670233932
 20
98.8461132098
 10
365.0572909397
 20
99.0746267245
 10
365.078611116
 20
99.4124788322
  0
LWPOLYLINE
  5
254
330
1F
100
AcDbEntity
  8
0
  6
SLD-Сплошная
 62
     7
370
    25
100
AcDbPolyline
 90
        3
 70
   128
 43
0.0
 10
365.3568506016
 20
100.3076856907
 10
365.4173559908
 20
100.4184077891
 10
365.7875988616
 20
100.916404715
  0
LWPOLYLINE
  5
255
330
1F
100
AcDbEntity
  8
0
  6
SLD-Сплошная
 62
     7
370
    25
100
AcDbPolyline
 90
        3
 70
   128
 43
0.0
 10
370.3027281747
 20
99.8994086001
 10
370.3408387394
 20
99.7702189884
 10
370.4271129927
 20
99.2433629111
  0
LINE
  5
256
330
1F
100
AcDbEntity
  8
0
  6
SLD-Сплошная
 62
     7
370
    25
100
AcDbLine
 10
293.4254985152
 20
184.0790238211
 30
0.0
 11
293.3643914602
 21
183.509699614
 31
0.0
  0
ARC
  5
257
330
1F
100
AcDbEntity
  8
0
  6
SLD-Сплошная
 62
     7
370
    25
100
AcDbCircle
 10
290.7427957982
 20
184.0790238211
 30
0.0
 40
2.682702717070317
100
AcDbArc
 50
179.8533854018
 51
207.9992781522
  0
LWPOLYLINE
  5
258
330
1F
100
AcDbEntity
  8
0
  6
SLD-Сплошная
 62
     7
370
    25
100
AcDbPolyline
 90
        3
 70
   128
 43
0.0
 10
292.9407861595
 20
185.6171175242
 10
293.066084502
 20
185.4203751796
 10
293.2610378376
 20
185.0038756465
  0
LINE
  5
259
330
1F
100
AcDbEntity
  8
0
  6
SLD-Сплошная
 62
     7
370
    25
100
AcDbLine
 10
293.3892635496
 20
184.5184578993
 30
0.0
 11
293.4254985152
 21
184.0790238211
 31
0.0
  0
LINE
  5
25A
330
1F
100
AcDbEntity
  8
0
  6
SLD-Сплошная
 62
     7
370
    25
100
AcDbLine
 10
188.5594774052
 20
215.8920841877
 30
0.0
 11
191.2648286693
 21
215.8920841877
 31
0.0
  0
LINE
  5
25B
330
1F
100
AcDbEntity
  8
0
  6
SLD-Сплошная
 62
     7
370
    25
100
AcDbLine
 10
191.2648286693
 20
296.4695708517
 30
0.0
 11
189.2777236535
 21
296.4695708517
 31
0.0
  0
LINE
  5
25C
330
1F
100
AcDbEntity
  8
0
  6
SLD-Сплошная
 62
     7
370
    25
100
AcDbLine
 10
173.4703890648
 20
231.9808275197
 30
0.0
 11
175.0994572724
 21
231.9808275197
 31
0.0
  0
LINE
  5
25D
330
1F
100
AcDbEntity
  8
0
  6
SLD-Сплошная
 62
     7
370
    25
100
AcDbLine
 10
175.0994572724
 20
280.3808275197
 30
0.0
 11
173.4703890648
 21
280.3808275197
 31
0.0
  0
LINE
  5
25E
330
1F
100
AcDbEntity
  8
0
  6
SLD-Сплошная
 62
     7
370
    25
100
AcDbLine
 10
201.0555728647
 20
227.8308308205
 30
0.0
 11
210.5552674016
 21
227.8308308205
 31
0.0
  0
LINE
  5
25F
330
1F
100
AcDbEntity
  8
0
  6
SLD-Сплошная
 62
     7
370
    25
100
AcDbLine
 10
210.5552674016
 20
284.3308308205
 30
0.0
 11
201.1228445531
 21
284.3308308205
 31
0.0
  0
LINE
  5
260
330
1F
100
AcDbEntity
  8
0
  6
SLD-Сплошная
 62
     7
370
    25
100
AcDbLine
 10
220.5552674016
 20
227.8308308205
 30
0.0
 11
224.6030533108
 21
227.8308308205
 31
0.0
  0
LINE
  5
261
330
1F
100
AcDbEntity
  8
0
  6
SLD-Сплошная
 62
     7
370
    25
100
AcDbLine
 10
224.6030533108
 20
284.3308308205
 30
0.0
 11
220.5552674016
 21
284.3308308205
 31
0.0
  0
SPLINE
  5
262
330
1F
100
AcDbEntity
  8
0
  6
SLD-Сплошная
 62
     7
370
    25
100
AcDbSpline
210
0.0
220
0.0
230
1.0
 70
     8
 71
     3
 72
    12
 73
     8
 74
     0
 42
0.00000001
 43
0.00000001
 40
0.0
 40
0.0
 40
0.0
 40
0.0
 40
0.2279101610186705
 40
0.4286414730295722
 40
0.5918067785220148
 40
0.7177807912054425
 40
1.0
 40
1.0
 40
1.0
 40
1.0
 10
174.2130265152715
 20
297.8671888329408
 30
0.0
 10
174.0846901094414
 20
297.8549566264596
 30
0.0
 10
173.8433217308117
 20
297.8319509342999
 30
0.0
 10
173.5413535145353
 20
297.6737917998549
 30
0.0
 10
173.3319658348002
 20
297.4912506142383
 30
0.0
 10
173.1293616882368
 20
297.2403834483079
 30
0.0
 10
173.0714848984383
 20
297.0432986599546
 30
0.0
 10
173.0314696777902
 20
296.9070369336253
 30
0.0
  0
LINE
  5
263
330
1F
100
AcDbEntity
  8
0
  6
SLD-Сплошная
 62
     7
370
    25
100
AcDbLine
 10
188.8011866383
 20
297.8672233212
 30
0.0
 11
174.2141605331
 21
297.8672233212
 31
0.0
  0
SPLINE
  5
264
330
1F
100
AcDbEntity
  8
0
  6
SLD-Сплошная
 62
     7
370
    25
100
AcDbSpline
210
0.0
220
0.0
230
1.0
 70
     8
 71
     3
 72
    12
 73
     8
 74
     0
 42
0.00000001
 43
0.00000001
 40
0.0
 40
0.0
 40
0.0
 40
0.0
 40
0.2943932537328508
 40
0.4235440197098521
 40
0.5859216569211185
 40
0.7813773553442608
 40
1.0
 40
1.0
 40
1.0
 40
1.0
 10
172.2868888079247
 20
215.5470585465732
 30
0.0
 10
172.327707813866
 20
215.3919868734046
 30
0.0
 10
172.3864341794933
 20
215.1688850225157
 30
0.0
 10
172.5992915552564
 20
214.8903331170842
 30
0.0
 10
172.8164523109974
 20
214.6952132911366
 30
0.0
 10
173.1260105413374
 20
214.5301324511755
 30
0.0
 10
173.3723367420928
 20
214.5067901302891
 30
0.0
 10
173.5023905987053
 20
214.4944659891938
 30
0.0
  0
SPLINE
  5
265
330
1F
100
AcDbEntity
  8
0
  6
SLD-Сплошная
 62
     7
370
    25
100
AcDbSpline
210
0.0
220
0.0
230
1.0
 70
     8
 71
     3
 72
    12
 73
     8
 74
     0
 42
0.00000001
 43
0.00000001
 40
0.0
 40
0.0
 40
0.0
 40
0.0
 40
0.1446971358726502
 40
0.2904673228322193
 40
0.5844598311533322
 40
0.8756196206350886
 40
1.0
 40
1.0
 40
1.0
 40
1.0
 10
174.8552584716841
 20
282.3992198407568
 30
0.0
 10
174.8609532891479
 20
282.3625000315788
 30
0.0
 10
174.8723851559417
 20
282.2887881049224
 30
0.0
 10
174.9192488635256
 20
282.1270819016032
 30
0.0
 10
175.0096765638025
 20
281.9300569654108
 30
0.0
 10
175.1223138420309
 20
281.759852393493
 30
0.0
 10
175.2104296621948
 20
281.6841003638507
 30
0.0
 10
175.2368046794896
 20
281.6614261029947
 30
0.0
  0
LINE
  5
266
330
1F
100
AcDbEntity
  8
0
  6
SLD-Сплошная
 62
     7
370
    25
100
AcDbLine
 10
173.0253089757
 20
295.1151589942
 30
0.0
 11
174.4097344751
 21
285.6713090627
 31
0.0
  0
LINE
  5
267
330
1F
100
AcDbEntity
  8
0
  6
SLD-Сплошная
 62
     7
370
    25
100
AcDbLine
 10
174.4097813352
 20
285.6713914382
 30
0.0
 11
174.8553914078
 21
282.3987927164
 31
0.0
  0
LINE
  5
268
330
1F
100
AcDbEntity
  8
0
  6
SLD-Сплошная
 62
     7
370
    25
100
AcDbLine
 10
172.9540266401
 20
295.6961379532
 30
0.0
 11
173.0176406523
 21
295.173093933
 31
0.0
  0
LINE
  5
269
330
1F
100
AcDbEntity
  8
0
  6
SLD-Сплошная
 62
     7
370
    25
100
AcDbLine
 10
173.5032888703
 20
214.4944317182
 30
0.0
 11
188.0903149755
 21
214.4944317182
 31
0.0
  0
SPLINE
  5
26A
330
1F
100
AcDbEntity
  8
0
  6
SLD-Сплошная
 62
     7
370
    25
100
AcDbSpline
210
0.0
220
0.0
230
1.0
 70
     8
 71
     3
 72
    12
 73
     8
 74
     0
 42
0.00000001
 43
0.00000001
 40
0.0
 40
0.0
 40
0.0
 40
0.0
 40
0.1264683271394273
 40
0.4200900121471686
 40
0.7126886839561085
 40
0.8570392178172307
 40
1.0
 40
1.0
 40
1.0
 40
1.0
 10
174.7644001538384
 20
230.6995851764272
 30
0.0
 10
174.7383721638339
 20
230.677331041335
 30
0.0
 10
174.651914954472
 20
230.6034094509043
 30
0.0
 10
174.5406111556629
 20
230.4376911689848
 30
0.0
 10
174.4513076591265
 20
230.2477316028922
 30
0.0
 10
174.4042750106874
 20
230.0923688640492
 30
0.0
 10
174.3918657473586
 20
230.0204815362375
 30
0.0
 10
174.3856911280772
 20
229.9847117351921
 30
0.0
  0
LINE
  5
26B
330
1F
100
AcDbEntity
  8
0
  6
SLD-Сплошная
 62
     7
370
    25
100
AcDbLine
 10
174.3858315262
 20
229.9848862295
 30
0.0
 11
173.881875529
 21
226.7206531048
 31
0.0
  0
LINE
  5
26C
330
1F
100
AcDbEntity
  8
0
  6
SLD-Сплошная
 62
     7
370
    25
100
AcDbLine
 10
173.8817853947
 20
226.7203073452
 30
0.0
 11
172.330393799
 21
217.3224982801
 31
0.0
  0
SPLINE
  5
26D
330
1F
100
AcDbEntity
  8
0
  6
SLD-Сплошная
 62
     7
370
    25
100
AcDbSpline
210
0.0
220
0.0
230
1.0
 70
     8
 71
     3
 72
     9
 73
     5
 74
     0
 42
0.00000001
 43
0.00000001
 40
0.0
 40
0.0
 40
0.0
 40
0.0
 40
0.4674951242795464
 40
1.0
 40
1.0
 40
1.0
 40
1.0
 10
172.2468346097601
 20
216.7268172137848
 30
0.0
 10
172.225530288295
 20
216.5794841080128
 30
0.0
 10
172.1799590719152
 20
216.2643297927691
 30
0.0
 10
172.2058657885773
 20
215.9269199906762
 30
0.0
 10
172.2196612415138
 20
215.7472476259458
 30
0.0
  0
LINE
  5
26E
330
1F
100
AcDbEntity
  8
0
  6
SLD-Сплошная
 62
     7
370
    25
100
AcDbLine
 10
172.3215775226
 20
217.2633544259
 30
0.0
 11
172.2483384463
 21
216.7377424748
 31
0.0
  0
LINE
  5
26F
330
1F
100
AcDbEntity
  8
0
  6
SLD-Сплошная
 62
     7
370
    25
100
AcDbLine
 10
218.5552674016
 20
302.0808308205
 30
0.0
 11
210.5552674016
 21
302.1059636444
 31
0.0
  0
LINE
  5
270
330
1F
100
AcDbEntity
  8
0
  6
SLD-Сплошная
 62
     7
370
    25
100
AcDbLine
 10
218.5552674016
 20
210.0808308205
 30
0.0
 11
210.5552674016
 21
210.0556979965
 31
0.0
  0
LINE
  5
271
330
1F
100
AcDbEntity
  8
0
  6
SLD-Сплошная
 62
     7
370
    25
100
AcDbLine
 10
210.5552674016
 20
210.0556979965
 30
0.0
 11
210.5552674016
 21
302.1059636444
 31
0.0
  0
LINE
  5
272
330
1F
100
AcDbEntity
  8
0
  6
SLD-Сплошная
 62
     7
370
    25
100
AcDbLine
 10
218.5552674016
 20
210.0808308205
 30
0.0
 11
220.5552674016
 21
210.0808308205
 31
0.0
  0
LINE
  5
273
330
1F
100
AcDbEntity
  8
0
  6
SLD-Сплошная
 62
     7
370
    25
100
AcDbLine
 10
218.5552674016
 20
302.0808308205
 30
0.0
 11
220.5552674016
 21
302.0808308205
 31
0.0
  0
LINE
  5
274
330
1F
100
AcDbEntity
  8
0
  6
SLD-Сплошная
 62
     7
370
    25
100
AcDbLine
 10
220.5552674016
 20
210.0808308205
 30
0.0
 11
220.5552674016
 21
302.0808308205
 31
0.0
  0
LWPOLYLINE
  5
275
330
1F
100
AcDbEntity
  8
0
  6
SLD-Сплошная
 62
     7
370
    25
100
AcDbPolyline
 90
       49
 70
   128
 43
0.0
 10
191.2648286693
 20
215.8920841877
 10
191.4083495053
 20
215.8942695559
 10
192.3382263463
 20
216.0145076203
 10
193.2632055199
 20
216.31801539
 10
194.1790665583
 20
216.8034080284
 10
195.0816305977
 20
217.4684708004
 10
195.9667794452
 20
218.310169177
 10
196.8304743698
 20
219.3246626816
 10
197.6687745296
 20
220.507322413
 10
198.4778549532
 20
221.8527521661
 10
199.2540239923
 20
223.3548130536
 10
199.9937401656
 20
225.0066515161
 10
200.6936283177
 20
226.8007305936
 10
201.3504950196
 20
228.7288643148
 10
201.9613431393
 20
230.7822550477
 10
202.5233855167
 20
232.9515336413
 10
203.0340576816
 20
235.2268021751
 10
203.4910295538
 20
237.5976791204
 10
203.8922160756
 20
240.0533467097
 10
204.2357867249
 20
242.5826002949
 10
204.5201738676
 20
245.1738994721
 10
204.7440799104
 20
247.8154207374
 10
204.9064832214
 20
250.4951114351
 10
205.0066427915
 20
253.2007447513
 10
205.0441016156
 20
255.9199755016
 10
205.0186887777
 20
258.6403964598
 10
204.9305202307
 20
261.3495949691
 10
204.7799982675
 20
264.0352095781
 10
204.5678096852
 20
266.6849864432
 10
204.2949226517
 20
269.2868352403
 10
203.962582288
 20
271.8288843303
 10
203.5723049868
 20
274.299534926
 10
203.1258714941
 20
276.6875140155
 10
202.6253187834
 20
278.981925798
 10
202.072930762
 20
281.1723013987
 10
201.4712278496
 20
283.2486466362
 10
200.8229554788
 20
285.2014876233
 10
200.1310715675
 20
287.0219139945
 10
199.3987330235
 20
288.7016195619
 10
198.6292813395
 20
290.2329402141
 10
197.8262273471
 20
291.6088888863
 10
196.9932351974
 20
292.8231874403
 10
196.1341056426
 20
293.8702953103
 10
195.2527586939
 20
294.7454347832
 10
194.353215735
 20
295.4446127983
 10
193.4395811744
 20
295.9646391668
 10
192.5160237168
 20
296.3031411275
 10
191.5867573433
 20
296.4585741737
 10
191.2648286693
 20
296.4695708517
  0
LINE
  5
276
330
1F
100
AcDbEntity
  8
0
  6
SLD-Сплошная
 62
     7
370
    25
100
AcDbLine
 10
183.9511533817
 20
222.4216421195
 30
0.0
 11
194.3131716278
 21
222.4216421399
 31
0.0
  0
ARC
  5
277
330
1F
100
AcDbEntity
  8
0
  6
SLD-Сплошная
 62
     7
370
    25
100
AcDbCircle
 10
157.5380002096
 20
236.2726225469
 30
0.0
 40
29.8245589957686
100
AcDbArc
 50
332.3276145231
 51
334.758616043
  0
LINE
  5
278
330
1F
100
AcDbEntity
  8
0
  6
SLD-Сплошная
 62
     7
370
    25
100
AcDbLine
 10
194.8769103245
 20
223.5544545933
 30
0.0
 11
184.514888896
 21
223.5544545933
 31
0.0
  0
ARC
  5
279
330
1F
100
AcDbEntity
  8
0
  6
SLD-Сплошная
 62
     7
370
    25
100
AcDbCircle
 10
136.6417065607
 20
248.5854902006
 30
0.0
 40
63.38684170231224
100
AcDbArc
 50
336.7406838098
 51
353.849021639
  0
LINE
  5
27A
330
1F
100
AcDbEntity
  8
0
  6
SLD-Сплошная
 62
     7
370
    25
100
AcDbLine
 10
189.3016121748
 20
241.7936704742
 30
0.0
 11
199.6636304148
 21
241.7936705092
 31
0.0
  0
ARC
  5
27B
330
1F
100
AcDbEntity
  8
0
  6
SLD-Сплошная
 62
     7
370
    25
100
AcDbCircle
 10
89.3225492758
 20
254.8591722637
 30
0.0
 40
100.8291642094448
100
AcDbArc
 50
352.5546435601
 51
353.6337930998
  0
LINE
  5
27C
330
1F
100
AcDbEntity
  8
0
  6
SLD-Сплошная
 62
     7
370
    25
100
AcDbLine
 10
199.891970943
 20
243.6789534564
 30
0.0
 11
189.5299495145
 21
243.6789534564
 31
0.0
  0
ARC
  5
27D
330
1F
100
AcDbEntity
  8
0
  6
SLD-Сплошная
 62
     7
370
    25
100
AcDbCircle
 10
85.4049492462
 20
256.1962930866
 30
0.0
 40
115.1692751059038
100
AcDbArc
 50
353.7603993048
 51
5.2133491615
  0
LINE
  5
27E
330
1F
100
AcDbEntity
  8
0
  6
SLD-Сплошная
 62
     7
370
    25
100
AcDbLine
 10
189.735780242
 20
266.6611038188
 30
0.0
 11
200.0977984741
 21
266.661103855
 31
0.0
  0
ARC
  5
27F
330
1F
100
AcDbEntity
  8
0
  6
SLD-Сплошная
 62
     7
370
    25
100
AcDbCircle
 10
84.7596710987
 20
256.994532094
 30
0.0
 40
105.4202357224953
100
AcDbArc
 50
5.2611612108
 51
6.3087457475
  0
LINE
  5
280
330
1F
100
AcDbEntity
  8
0
  6
SLD-Сплошная
 62
     7
370
    25
100
AcDbLine
 10
199.9035237328
 20
268.5787432886
 30
0.0
 11
189.5415023042
 21
268.5787432886
 31
0.0
  0
ARC
  5
281
330
1F
100
AcDbEntity
  8
0
  6
SLD-Сплошная
 62
     7
370
    25
100
AcDbCircle
 10
130.4593275463
 20
262.2516988157
 30
0.0
 40
69.73182828343509
100
AcDbArc
 50
5.2058322992
 51
21.2502309686
  0
LINE
  5
282
330
1F
100
AcDbEntity
  8
0
  6
SLD-Сплошная
 62
     7
370
    25
100
AcDbLine
 10
185.0878201385
 20
287.5254278287
 30
0.0
 11
195.4498383639
 21
287.5254278522
 31
0.0
  0
ARC
  5
283
330
1F
100
AcDbEntity
  8
0
  6
SLD-Сплошная
 62
     7
370
    25
100
AcDbCircle
 10
152.9736058704
 20
273.9408875413
 30
0.0
 40
34.86921984894072
100
AcDbArc
 50
22.9287066052
 51
25.1191630969
  0
LINE
  5
284
330
1F
100
AcDbEntity
  8
0
  6
SLD-Сплошная
 62
     7
370
    25
100
AcDbLine
 10
194.9071559207
 20
288.7429506867
 30
0.0
 11
184.5451344922
 21
288.7429506867
 31
0.0
  0
LWPOLYLINE
  5
285
330
1F
100
AcDbEntity
  8
0
  6
SLD-Сплошная
 62
     7
370
    25
100
AcDbPolyline
 90
        9
 70
   128
 43
0.0
 10
187.6274073497
 20
296.3955700561
 10
188.6028393124
 20
296.1204043461
 10
189.5691158381
 20
295.643238942
 10
190.5213498555
 20
294.9664871712
 10
191.4547253151
 20
294.093571795
 10
192.364521547
 20
293.0289076987
 10
193.2461371364
 20
291.7778795617
 10
194.0951131958
 20
290.3468146242
 10
194.9071559207
 20
288.7429506867
  0
LINE
  5
286
330
1F
100
AcDbEntity
  8
0
  6
SLD-Сплошная
 62
     7
370
    25
100
AcDbLine
 10
187.6274073497
 20
296.3955700561
 30
0.0
 11
189.2805407766
 21
296.3955700561
 31
0.0
  0
LINE
  5
287
330
1F
100
AcDbEntity
  8
0
  6
SLD-Сплошная
 62
     7
370
    25
100
AcDbLine
 10
168.91003853
 20
289.94001292
 30
0.0
 11
170.0429870944
 21
289.94001292
 31
0.0
  0
ARC
  5
288
330
1F
100
AcDbEntity
  8
0
  6
SLD-Сплошная
 62
     7
370
    25
100
AcDbCircle
 10
195.3231917024
 20
276.0890324923
 30
0.0
 40
29.82455899621273
100
AcDbArc
 50
152.3276145231
 51
154.7586160429
  0
LINE
  5
289
330
1F
100
AcDbEntity
  8
0
  6
SLD-Сплошная
 62
     7
370
    25
100
AcDbLine
 10
163.5595797369
 20
270.5679845653
 30
0.0
 11
164.0897191673
 21
270.5679845653
 31
0.0
  0
ARC
  5
28A
330
1F
100
AcDbEntity
  8
0
  6
SLD-Сплошная
 62
     7
370
    25
100
AcDbCircle
 10
263.5386426368
 20
257.5024827756
 30
0.0
 40
100.8291642103563
100
AcDbArc
 50
172.5546435601
 51
173.6337930998
  0
ARC
  5
28B
330
1F
100
AcDbEntity
  8
0
  6
SLD-Сплошная
 62
     7
370
    25
100
AcDbCircle
 10
268.1015208156
 20
255.3671229457
 30
0.0
 40
105.4202357251105
100
AcDbArc
 50
185.2611612108
 51
186.3087457475
  0
LINE
  5
28C
330
1F
100
AcDbEntity
  8
0
  6
SLD-Сплошная
 62
     7
370
    25
100
AcDbLine
 10
163.8356725013
 20
243.7829117509
 30
0.0
 11
163.3196896075
 21
243.7829117509
 31
0.0
  0
ARC
  5
28D
330
1F
100
AcDbEntity
  8
0
  6
SLD-Сплошная
 62
     7
370
    25
100
AcDbCircle
 10
199.8875860418
 20
238.4207674984
 30
0.0
 40
34.86921984954125
100
AcDbArc
 50
202.9287066052
 51
205.1191630968
  0
LINE
  5
28E
330
1F
100
AcDbEntity
  8
0
  6
SLD-Сплошная
 62
     7
370
    25
100
AcDbLine
 10
169.333157251
 20
223.6187043528
 30
0.0
 11
168.3160574195
 21
223.6187043528
 31
0.0
  0
LINE
  5
28F
330
1F
100
AcDbEntity
  8
0
  6
SLD-Сплошная
 62
     7
370
    25
100
AcDbLine
 10
186.906421368
 20
215.8934582464
 30
0.0
 11
188.5595547948
 21
215.8934582464
 31
0.0
  0
LWPOLYLINE
  5
290
330
1F
100
AcDbEntity
  8
0
  6
SLD-Сплошная
 62
     7
370
    25
100
AcDbPolyline
 90
        9
 70
   128
 43
0.0
 10
194.3131716278
 20
222.4216421399
 10
193.4735327043
 20
220.9442350952
 10
192.6001041676
 20
219.6450417793
 10
191.6973034979
 20
218.5306330342
 10
190.7696967292
 20
217.6066451297
 10
189.8219753555
 20
216.8777512568
 10
188.8589326029
 20
216.3476378928
 10
187.8854391877
 20
216.0189861561
 10
186.906421368
 20
215.8934582464
  0
LWPOLYLINE
  5
291
330
1F
100
AcDbEntity
  8
0
  6
SLD-Сплошная
 62
     7
370
    25
100
AcDbPolyline
 90
       19
 70
   128
 43
0.0
 10
183.3763447409
 20
256.1808275197
 10
183.3448486852
 20
258.2899964942
 10
183.2506002222
 20
260.3831134193
 10
183.0943166395
 20
262.4442484112
 10
182.8771873496
 20
264.4577149882
 10
182.6008648375
 20
266.4081894538
 10
182.2674520844
 20
268.2808275197
 10
181.8794865626
 20
270.0613772794
 10
181.4399209239
 20
271.7362876741
 10
180.9521005285
 20
273.2928116244
 10
180.4197379839
 20
274.7191030432
 10
179.8468848906
 20
276.0043069915
 10
179.2379010066
 20
277.1386422913
 10
178.5974210669
 20
278.113475966
 10
177.9303195107
 20
278.9213889427
 10
177.2416733834
 20
279.5562325159
 10
176.5367236981
 20
280.0131751426
 10
175.8208355473
 20
280.2887392135
 10
175.0994572724
 20
280.3808275197
  0
LWPOLYLINE
  5
292
330
1F
100
AcDbEntity
  8
0
  6
SLD-Сплошная
 62
     7
370
    25
100
AcDbPolyline
 90
       19
 70
   128
 43
0.0
 10
175.0994572724
 20
231.9808275197
 10
175.8208355473
 20
232.0729158259
 10
176.5367236981
 20
232.3484798968
 10
177.2416733834
 20
232.8054225235
 10
177.9303195107
 20
233.4402660967
 10
178.5974210669
 20
234.2481790734
 10
179.2379010066
 20
235.2230127481
 10
179.8468848906
 20
236.3573480479
 10
180.4197379839
 20
237.6425519962
 10
180.9521005285
 20
239.068843415
 10
181.4399209239
 20
240.6253673653
 10
181.8794865626
 20
242.30027776
 10
182.2674520844
 20
244.0808275197
 10
182.6008648375
 20
245.9534655856
 10
182.8771873496
 20
247.9039400512
 10
183.0943166395
 20
249.9174066282
 10
183.2506002222
 20
251.9785416202
 10
183.3448486852
 20
254.0716585452
 10
183.3763447409
 20
256.1808275197
  0
ARC
  5
293
330
1F
100
AcDbEntity
  8
0
  6
SLD-Сплошная
 62
     7
370
    25
100
AcDbCircle
 10
183.6733342058
 20
231.4724383388
 30
0.0
 40
16.39266554899779
100
AcDbArc
 50
202.5084927735
 51
227.7980740685
  0
ARC
  5
294
330
1F
100
AcDbEntity
  8
0
  6
SLD-Сплошная
 62
     7
370
    25
100
AcDbCircle
 10
414.9428633884
 20
191.0823672714
 30
0.0
 40
248.7637325919792
100
AcDbArc
 50
172.1178098305
 51
172.4846314541
  0
ARC
  5
295
330
1F
100
AcDbEntity
  8
0
  6
SLD-Сплошная
 62
     7
370
    25
100
AcDbCircle
 10
414.4001780512
 20
192.2998900881
 30
0.0
 40
248.7637329038337
100
AcDbArc
 50
172.1178098309
 51
172.484631454
  0
ARC
  5
296
330
1F
100
AcDbEntity
  8
0
  6
SLD-Сплошная
 62
     7
370
    25
100
AcDbCircle
 10
229.7979961533
 20
250.4062767006
 30
0.0
 40
66.30412664152595
100
AcDbArc
 50
185.2425487111
 51
201.21349623
  0
ARC
  5
297
330
1F
100
AcDbEntity
  8
0
  6
SLD-Сплошная
 62
     7
370
    25
100
AcDbCircle
 10
214.3876654023
 20
203.434066885
 30
0.0
 40
65.08431019686036
100
AcDbArc
 50
141.0509813793
 51
141.687711067
  0
ARC
  5
298
330
1F
100
AcDbEntity
  8
0
  6
SLD-Сплошная
 62
     7
370
    25
100
AcDbCircle
 10
214.1933875766
 20
205.3517062656
 30
0.0
 40
65.08431033999946
100
AcDbArc
 50
141.0509813803
 51
141.6877110666
  0
ARC
  5
299
330
1F
100
AcDbEntity
  8
0
  6
SLD-Сплошная
 62
     7
370
    25
100
AcDbCircle
 10
272.6335442901
 20
256.1662483974
 30
0.0
 40
109.5050839677695
100
AcDbArc
 50
173.7863668392
 51
185.1873656887
  0
ARC
  5
29A
330
1F
100
AcDbEntity
  8
0
  6
SLD-Сплошная
 62
     7
370
    25
100
AcDbCircle
 10
225.271767155
 20
309.2948874079
 30
0.0
 40
74.06738988748047
100
AcDbArc
 50
213.2514221229
 51
213.8678829383
  0
ARC
  5
29B
330
1F
100
AcDbEntity
  8
0
  6
SLD-Сплошная
 62
     7
370
    25
100
AcDbCircle
 10
225.5001045215
 20
311.1801704078
 30
0.0
 40
74.06738991961451
100
AcDbArc
 50
213.2514221229
 51
213.8678829381
  0
ARC
  5
29C
330
1F
100
AcDbEntity
  8
0
  6
SLD-Сплошная
 62
     7
370
    25
100
AcDbCircle
 10
223.9199731994
 20
263.4048836157
 30
0.0
 40
60.2712777091745
100
AcDbArc
 50
156.779904957
 51
173.8097816958
  0
ARC
  5
29D
330
1F
100
AcDbEntity
  8
0
  6
SLD-Сплошная
 62
     7
370
    25
100
AcDbCircle
 10
432.9895124478
 20
317.7647861354
 30
0.0
 40
266.2227827731576
100
AcDbArc
 50
186.2445318489
 51
186.5996109867
  0
ARC
  5
29E
330
1F
100
AcDbEntity
  8
0
  6
SLD-Сплошная
 62
     7
370
    25
100
AcDbCircle
 10
433.5532478935
 20
318.8975986016
 30
0.0
 40
266.2227827040998
100
AcDbArc
 50
186.2445318489
 51
186.5996109868
  0
ARC
  5
29F
330
1F
100
AcDbEntity
  8
0
  6
SLD-Сплошная
 62
     7
370
    25
100
AcDbCircle
 10
181.7478230329
 20
282.3962243387
 30
0.0
 40
13.96299206790806
100
AcDbArc
 50
127.4152738118
 51
154.9852103981
  0
ARC
  5
2A0
330
1F
100
AcDbEntity
  8
0
  6
SLD-Сплошная
 62
     7
370
    25
100
AcDbCircle
 10
564.9983360698
 20
243.2293234622
 30
0.0
 40
391.0633578713109
100
AcDbArc
 50
172.8195655723
 51
173.7562507692
  0
SPLINE
  5
2A1
330
1F
100
AcDbEntity
  8
0
  6
SLD-Сплошная
 62
     7
370
    25
100
AcDbSpline
210
0.0
220
0.0
230
1.0
 70
     8
 71
     3
 72
    10
 73
     6
 74
     0
 42
0.00000001
 43
0.00000001
 40
0.0
 40
0.0
 40
0.0
 40
0.0
 40
0.5
 40
0.5
 40
1.0
 40
1.0
 40
1.0
 40
1.0
 10
177.0632175283629
 20
293.143760732825
 30
0.0
 10
177.0409149300206
 20
292.9703658194085
 30
0.0
 10
177.0291475596251
 20
292.796890386435
 30
0.0
 10
177.011963727177
 20
292.4521867337398
 30
0.0
 10
177.0070021667947
 20
292.2806554515104
 30
0.0
 10
177.0019149832406
 20
292.1100670489285
 30
0.0
  0
LWPOLYLINE
  5
2A2
330
1F
100
AcDbEntity
  8
0
  6
SLD-Сплошная
 62
     7
370
    25
100
AcDbPolyline
 90
        9
 70
   128
 43
0.0
 10
177.0632175284
 20
293.1437607328
 10
177.0637027131
 20
293.147532328
 10
177.0641879346
 20
293.1513039192
 10
177.0646731928
 20
293.1550755064
 10
177.0651584878
 20
293.1588470897
 10
177.0656438196
 20
293.162618669
 10
177.066129188
 20
293.1663902443
 10
177.0666145933
 20
293.1701618157
 10
177.0671000349
 20
293.1739333832
  0
SPLINE
  5
2A3
330
1F
100
AcDbEntity
  8
0
  6
SLD-Сплошная
 62
     7
370
    25
100
AcDbSpline
210
0.0
220
0.0
230
1.0
 70
     8
 71
     3
 72
     8
 73
     4
 74
     0
 42
0.00000001
 43
0.00000001
 40
0.0
 40
0.0
 40
0.0
 40
0.0
 40
1.0
 40
1.0
 40
1.0
 40
1.0
 10
177.0766688910854
 20
293.2772734463177
 30
0.0
 10
177.0747245720177
 20
293.2428123614944
 30
0.0
 10
177.0715320216248
 20
293.2083657077601
 30
0.0
 10
177.0671000348738
 20
293.1739333832429
 30
0.0
  0
ARC
  5
2A4
330
1F
100
AcDbEntity
  8
0
  6
SLD-Сплошная
 62
     7
370
    25
100
AcDbCircle
 10
558.955253586
 20
271.7314498583
 30
0.0
 40
382.4859160317687
100
AcDbArc
 50
176.6040893125
 51
176.7707606618
  0
LWPOLYLINE
  5
2A5
330
1F
100
AcDbEntity
  8
0
  6
SLD-Сплошная
 62
     7
370
    25
100
AcDbPolyline
 90
        9
 70
   128
 43
0.0
 10
183.9300774282
 20
287.1646630229
 10
183.1717391132
 20
288.6603696994
 10
182.379548309
 20
289.9976905278
 10
181.5573681185
 20
291.1701040896
 10
180.7092078872
 20
292.171893133
 10
179.8392036518
 20
292.9981724536
 10
178.9515979708
 20
293.6449127164
 10
178.0507192359
 20
294.1089601054
 10
177.1409605644
 20
294.3880517025
  0
ARC
  5
2A6
330
1F
100
AcDbEntity
  8
0
  6
SLD-Сплошная
 62
     7
370
    25
100
AcDbCircle
 10
463.099611425
 20
179.2815728451
 30
0.0
 40
299.2898091453417
100
AcDbArc
 50
158.547049721
 51
158.8713283205
  0
ARC
  5
2A7
330
1F
100
AcDbEntity
  8
0
  6
SLD-Сплошная
 62
     7
370
    25
100
AcDbCircle
 10
463.64229695
 20
178.0640500345
 30
0.0
 40
299.2898090151828
100
AcDbArc
 50
158.5470497209
 51
158.8713283206
  0
ARC
  5
2A8
330
1F
100
AcDbEntity
  8
0
  6
SLD-Сплошная
 62
     7
370
    25
100
AcDbCircle
 10
122.6614973202
 20
261.9553783389
 30
0.0
 40
66.3041266413597
100
AcDbArc
 50
5.2425487111
 51
21.21349623
  0
ARC
  5
2A9
330
1F
100
AcDbEntity
  8
0
  6
SLD-Сплошная
 62
     7
370
    25
100
AcDbCircle
 10
290.8966343542
 20
114.5940364771
 30
0.0
 40
184.3479121787882
100
AcDbArc
 50
123.3535350485
 51
123.6715978688
  0
ARC
  5
2AA
330
1F
100
AcDbEntity
  8
0
  6
SLD-Сплошная
 62
     7
370
    25
100
AcDbCircle
 10
291.0909119719
 20
112.676397492
 30
0.0
 40
184.3479115979529
100
AcDbArc
 50
123.3535350482
 51
123.6715978695
  0
ARC
  5
2AB
330
1F
100
AcDbEntity
  8
0
  6
SLD-Сплошная
 62
     7
370
    25
100
AcDbCircle
 10
79.8259491836
 20
256.195406642
 30
0.0
 40
109.5050839674425
100
AcDbArc
 50
353.7863668392
 51
5.1873656887
  0
ARC
  5
2AC
330
1F
100
AcDbEntity
  8
0
  6
SLD-Сплошная
 62
     7
370
    25
100
AcDbCircle
 10
300.909131274
 20
385.8057800086
 30
0.0
 40
180.5695349587037
100
AcDbArc
 50
231.5752780978
 51
231.915602553
  0
ARC
  5
2AD
330
1F
100
AcDbEntity
  8
0
  6
SLD-Сплошная
 62
     7
370
    25
100
AcDbCircle
 10
300.6807943697
 20
383.92049758
 30
0.0
 40
180.569535663
100
AcDbArc
 50
231.5752780987
 51
231.9156025526
  0
ARC
  5
2AE
330
1F
100
AcDbEntity
  8
0
  6
SLD-Сплошная
 62
     7
370
    25
100
AcDbCircle
 10
128.539520274
 20
248.9567714237
 30
0.0
 40
60.27127770909358
100
AcDbArc
 50
336.779904957
 51
353.8097816958
  0
ARC
  5
2AF
330
1F
100
AcDbEntity
  8
0
  6
SLD-Сплошная
 62
     7
370
    25
100
AcDbCircle
 10
478.8643693977
 20
329.7295061566
 30
0.0
 40
312.9133398340329
100
AcDbArc
 50
199.5161087613
 51
199.8349240919
  0
ARC
  5
2B0
330
1F
100
AcDbEntity
  8
0
  6
SLD-Сплошная
 62
     7
370
    25
100
AcDbCircle
 10
478.3006343593
 20
328.5966938535
 30
0.0
 40
312.9133403395995
100
AcDbArc
 50
199.5161087617
 51
199.8349240918
  0
LWPOLYLINE
  5
2B1
330
1F
100
AcDbEntity
  8
0
  6
SLD-Сплошная
 62
     7
370
    25
100
AcDbPolyline
 90
        9
 70
   128
 43
0.0
 10
183.3649152474
 20
224.0611489203
 10
182.5808431321
 20
222.6835330621
 10
181.7658000202
 20
221.4692661007
 10
180.9237604535
 20
220.4242693853
 10
180.0588306213
 20
219.5536388216
 10
179.1752283369
 20
218.8616200225
 10
178.2772624695
 20
218.351587604
 10
177.3693119319
 20
218.0260287292
 10
176.4558043271
 20
217.8865309796
  0
ARC
  5
2B2
330
1F
100
AcDbEntity
  8
0
  6
SLD-Сплошная
 62
     7
370
    25
100
AcDbCircle
 10
552.1576573886
 20
233.5879509725
 30
0.0
 40
376.0298086370867
100
AcDbArc
 50
182.224957683
 51
182.3931260382
  0
SPLINE
  5
2B3
330
1F
100
AcDbEntity
  8
0
  6
SLD-Сплошная
 62
     7
370
    25
100
AcDbSpline
210
0.0
220
0.0
230
1.0
 70
     8
 71
     3
 72
     8
 73
     4
 74
     0
 42
0.00000001
 43
0.00000001
 40
0.0
 40
0.0
 40
0.0
 40
0.0
 40
1.0
 40
1.0
 40
1.0
 40
1.0
 10
176.4113375788566
 20
218.9893163418285
 30
0.0
 10
176.4100032305984
 20
219.0236602817078
 30
0.0
 10
176.4074178021745
 20
219.0580469811441
 30
0.0
 10
176.4036181500722
 20
219.0924751807315
 30
0.0
  0
LWPOLYLINE
  5
2B4
330
1F
100
AcDbEntity
  8
0
  6
SLD-Сплошная
 62
     7
370
    25
100
AcDbPolyline
 90
        9
 70
   128
 43
0.0
 10
176.4036181501
 20
219.0924751807
 10
176.4032003976
 20
219.0962605555
 10
176.4027826819
 20
219.1000459343
 10
176.4023650031
 20
219.103831317
 10
176.401947361
 20
219.1076167037
 10
176.4015297558
 20
219.1114020944
 10
176.4011121874
 20
219.115187489
 10
176.4006946558
 20
219.1189728876
 10
176.4002771614
 20
219.1227582903
  0
SPLINE
  5
2B5
330
1F
100
AcDbEntity
  8
0
  6
SLD-Сплошная
 62
     7
370
    25
100
AcDbSpline
210
0.0
220
0.0
230
1.0
 70
     8
 71
     3
 72
    10
 73
     6
 74
     0
 42
0.00000001
 43
0.00000001
 40
0.0
 40
0.0
 40
0.0
 40
0.0
 40
0.5
 40
0.5
 40
1.0
 40
1.0
 40
1.0
 40
1.0
 10
176.4002771613953
 20
219.1227582902579
 30
0.0
 10
176.3810861279083
 20
219.2967911048485
 30
0.0
 10
176.3724181461277
 20
219.469341469757
 30
0.0
 10
176.3613835169593
 20
219.8113136040079
 30
0.0
 10
176.3594763110671
 20
219.9809659716108
 30
0.0
 10
176.3574300480237
 20
220.1497243707768
 30
0.0
  0
ARC
  5
2B6
330
1F
100
AcDbEntity
  8
0
  6
SLD-Сплошная
 62
     7
370
    25
100
AcDbCircle
 10
565.7408376692
 20
262.0629165602
 30
0.0
 40
391.6326771481112
100
AcDbArc
 50
185.2067337658
 51
186.1436574935
  0
LINE
  5
2B7
330
1F
100
AcDbEntity
  8
0
  6
SLD-Сплошная
 62
     7
370
    25
100
AcDbLine
 10
198.5110066575
 20
266.0960870828
 30
0.0
 11
200.0977984741
 21
266.661103855
 31
0.0
  0
LINE
  5
2B8
330
1F
100
AcDbEntity
  8
0
  6
SLD-Сплошная
 62
     7
370
    25
100
AcDbLine
 10
198.5110066575
 20
266.0960870828
 30
0.0
 11
188.8825397297
 21
266.0960870828
 31
0.0
  0
ARC
  5
2B9
330
1F
100
AcDbEntity
  8
0
  6
SLD-Сплошная
 62
     7
370
    25
100
AcDbCircle
 10
89.4544160953
 20
256.1954066422
 30
0.0
 40
109.5050839835143
100
AcDbArc
 50
353.78636684
 51
5.1873656878
  0
LINE
  5
2BA
330
1F
100
AcDbEntity
  8
0
  6
SLD-Сплошная
 62
     7
370
    25
100
AcDbLine
 10
198.3161837816
 20
244.343024837
 30
0.0
 11
188.6877168537
 21
244.343024837
 31
0.0
  0
LINE
  5
2BB
330
1F
100
AcDbEntity
  8
0
  6
SLD-Сплошная
 62
     7
370
    25
100
AcDbLine
 10
198.6995941153
 20
244.1814453996
 30
0.0
 11
198.3161837816
 21
244.343024837
 31
0.0
  0
LINE
  5
2BC
330
1F
100
AcDbEntity
  8
0
  6
SLD-Сплошная
 62
     7
370
    25
100
AcDbLine
 10
199.891970943
 20
243.6789534564
 30
0.0
 11
198.6995941153
 21
244.1814453996
 31
0.0
  0
ARC
  5
2BD
330
1F
100
AcDbEntity
  8
0
  6
SLD-Сплошная
 62
     7
370
    25
100
AcDbCircle
 10
132.7820978943
 20
262.1115774283
 30
0.0
 40
65.78882894130155
100
AcDbArc
 50
5.6413938067
 51
21.2417665472
  0
LINE
  5
2BE
330
1F
100
AcDbEntity
  8
0
  6
SLD-Сплошная
 62
     7
370
    25
100
AcDbLine
 10
194.1012300024
 20
285.9471401649
 30
0.0
 11
184.4727630745
 21
285.9471401649
 31
0.0
  0
ARC
  5
2BF
330
1F
100
AcDbEntity
  8
0
  6
SLD-Сплошная
 62
     7
370
    25
100
AcDbCircle
 10
138.7581963784
 20
248.7489368225
 30
0.0
 40
59.64694999999218
100
AcDbArc
 50
336.7398496707
 51
353.3036629889
  0
LINE
  5
2C0
330
1F
100
AcDbEntity
  8
0
  6
SLD-Сплошная
 62
     7
370
    25
100
AcDbLine
 10
193.5571176896
 20
225.1939613942
 30
0.0
 11
183.9286507617
 21
225.1939613942
 31
0.0
  0
LINE
  5
2C1
330
1F
100
AcDbEntity
  8
0
  6
SLD-Сплошная
 62
     7
370
    25
100
AcDbLine
 10
194.1012300024
 20
285.9471401649
 30
0.0
 11
195.4498383639
 21
287.5254278522
 31
0.0
  0
LINE
  5
2C2
330
1F
100
AcDbEntity
  8
0
  6
SLD-Сплошная
 62
     7
370
    25
100
AcDbLine
 10
194.8769103245
 20
223.5544545933
 30
0.0
 11
193.8782403645
 21
224.7950425518
 31
0.0
  0
LINE
  5
2C3
330
1F
100
AcDbEntity
  8
0
  6
SLD-Сплошная
 62
     7
370
    25
100
AcDbLine
 10
193.8782403645
 20
224.7950425518
 30
0.0
 11
193.5571176896
 21
225.1939613942
 31
0.0
  0
LINE
  5
2C4
330
1F
100
AcDbEntity
  8
0
  6
SLD-Сплошная
 62
     7
370
    25
100
AcDbLine
 10
210.5552674016
 20
249.4463940976
 30
0.0
 11
204.8505225015
 21
249.4463940976
 31
0.0
  0
LINE
  5
2C5
330
1F
100
AcDbEntity
  8
0
  6
SLD-Сплошная
 62
     7
370
    25
100
AcDbLine
 10
210.5552674016
 20
262.7152675433
 30
0.0
 11
204.8619423088
 21
262.7152675433
 31
0.0
  0
LWPOLYLINE
  5
2C6
330
1F
100
AcDbEntity
  8
0
  6
SLD-Сплошная
 62
     7
370
    25
100
AcDbPolyline
 90
       37
 70
   128
 43
0.0
 10
165.1935015963
 20
256.1808275197
 10
165.224997652
 20
254.0716585452
 10
165.3192461151
 20
251.9785416202
 10
165.4755296977
 20
249.9174066282
 10
165.6926589876
 20
247.9039400512
 10
165.9689814997
 20
245.9534655856
 10
166.3023942529
 20
244.0808275197
 10
166.6903597747
 20
242.30027776
 10
167.1299254133
 20
240.6253673653
 10
167.6177458087
 20
239.068843415
 10
168.1501083533
 20
237.6425519962
 10
168.7229614466
 20
236.3573480479
 10
169.3319453306
 20
235.2230127481
 10
169.9724252703
 20
234.2481790734
 10
170.6395268266
 20
233.4402660967
 10
171.3281729538
 20
232.8054225235
 10
172.0331226392
 20
232.3484798968
 10
172.7490107899
 20
232.0729158259
 10
173.4703890648
 20
231.9808275197
 10
174.1917673398
 20
232.0729158259
 10
174.9076554905
 20
232.3484798968
 10
175.6126051758
 20
232.8054225235
 10
176.3012513031
 20
233.4402660967
 10
176.9683528594
 20
234.2481790734
 10
177.6088327991
 20
235.2230127481
 10
178.2178166831
 20
236.3573480479
 10
178.7906697763
 20
237.6425519962
 10
179.3230323209
 20
239.068843415
 10
179.8108527164
 20
240.6253673653
 10
180.250418355
 20
242.30027776
 10
180.6383838768
 20
244.0808275197
 10
180.9717966299
 20
245.9534655856
 10
181.248119142
 20
247.9039400512
 10
181.4652484319
 20
249.9174066282
 10
181.6215320146
 20
251.9785416202
 10
181.7157804776
 20
254.0716585452
 10
181.7472765333
 20
256.1808275197
  0
LWPOLYLINE
  5
2C7
330
1F
100
AcDbEntity
  8
0
  6
SLD-Сплошная
 62
     7
370
    25
100
AcDbPolyline
 90
       37
 70
   128
 43
0.0
 10
181.7472765333
 20
256.1808275197
 10
181.7157804776
 20
258.2899964942
 10
181.6215320146
 20
260.3831134193
 10
181.4652484319
 20
262.4442484112
 10
181.248119142
 20
264.4577149882
 10
180.9717966299
 20
266.4081894538
 10
180.6383838768
 20
268.2808275197
 10
180.250418355
 20
270.0613772794
 10
179.8108527164
 20
271.7362876741
 10
179.3230323209
 20
273.2928116244
 10
178.7906697763
 20
274.7191030432
 10
178.2178166831
 20
276.0043069915
 10
177.6088327991
 20
277.1386422913
 10
176.9683528594
 20
278.113475966
 10
176.3012513031
 20
278.9213889427
 10
175.6126051758
 20
279.5562325159
 10
174.9076554905
 20
280.0131751426
 10
174.1917673398
 20
280.2887392135
 10
173.4703890648
 20
280.3808275197
 10
172.7490107899
 20
280.2887392135
 10
172.0331226392
 20
280.0131751426
 10
171.3281729538
 20
279.5562325159
 10
170.6395268266
 20
278.9213889427
 10
169.9724252703
 20
278.113475966
 10
169.3319453306
 20
277.1386422913
 10
168.7229614466
 20
276.0043069915
 10
168.1501083533
 20
274.7191030432
 10
167.6177458087
 20
273.2928116244
 10
167.1299254133
 20
271.7362876741
 10
166.6903597747
 20
270.0613772794
 10
166.3023942529
 20
268.2808275197
 10
165.9689814997
 20
266.4081894538
 10
165.6926589876
 20
264.4577149882
 10
165.4755296977
 20
262.4442484112
 10
165.3192461151
 20
260.3831134193
 10
165.224997652
 20
258.2899964942
 10
165.1935015963
 20
256.1808275197
  0
LINE
  5
2C8
330
1F
100
AcDbEntity
  8
0
  6
SLD-Сплошная
 62
     7
370
    25
100
AcDbLine
 10
177.1409605644
 20
294.3880517025
 30
0.0
 11
186.7694252634
 21
294.3880528397
 31
0.0
  0
LWPOLYLINE
  5
2C9
330
1F
100
AcDbEntity
  8
0
  6
SLD-Сплошная
 62
     7
370
    25
100
AcDbPolyline
 90
        8
 70
   128
 43
0.0
 10
192.7548031489
 20
288.7429506867
 10
192.0080152213
 20
289.9976905519
 10
191.1858350223
 20
291.1701041209
 10
190.337674782
 20
292.1718931682
 10
189.4676705374
 20
292.998172489
 10
188.5800648471
 20
293.6449127484
 10
187.6791861028
 20
294.1089601304
 10
186.7694252634
 20
294.3880528397
  0
LWPOLYLINE
  5
2CA
330
1F
100
AcDbEntity
  8
0
  6
SLD-Сплошная
 62
     7
370
    25
100
AcDbPolyline
 90
        8
 70
   128
 43
0.0
 10
186.0842699049
 20
217.8865303022
 10
186.9977775344
 20
218.0260280471
 10
187.9057281031
 20
218.3515869226
 10
188.8036940078
 20
218.8616193472
 10
189.6872963354
 20
219.5536381578
 10
190.5522262166
 20
220.4242687383
 10
191.3942658377
 20
221.4692654757
 10
192.0449733055
 20
222.4216421195
  0
LINE
  5
2CB
330
1F
100
AcDbEntity
  8
0
  6
SLD-Сплошная
 62
     7
370
    25
100
AcDbLine
 10
186.0842699049
 20
217.8865303022
 30
0.0
 11
176.4558043271
 21
217.8865309796
 31
0.0
  0
LINE
  5
2CC
330
1F
100
AcDbEntity
  8
0
  6
SLD-Сплошная
 62
     7
370
    25
100
AcDbLine
 10
230.89391059
 20
262.7152675433
 30
0.0
 11
220.5552674016
 21
262.7152675433
 31
0.0
  0
LWPOLYLINE
  5
2CD
330
1F
100
AcDbEntity
  8
0
  6
SLD-Сплошная
 62
     7
370
    25
100
AcDbPolyline
 90
       16
 70
   128
 43
0.0
 10
230.89391059
 20
262.7152675433
 10
231.2694572361
 20
262.2817280807
 10
231.6143617058
 20
261.6679873417
 10
231.9186008971
 20
260.8918809491
 10
232.1733334622
 20
259.9759629554
 10
232.371156741
 20
258.9468504105
 10
232.506321887
 20
257.8344498563
 10
232.5749009312
 20
256.6710882274
 10
232.5749009312
 20
255.4905734135
 10
232.506321887
 20
254.3272117846
 10
232.371156741
 20
253.2148112304
 10
232.1733334622
 20
252.1856986855
 10
231.9186008971
 20
251.2697806918
 10
231.6143617058
 20
250.4936742992
 10
231.2694572361
 20
249.8799335602
 10
230.89391059
 20
249.4463940976
  0
LINE
  5
2CE
330
1F
100
AcDbEntity
  8
0
  6
SLD-Сплошная
 62
     7
370
    25
100
AcDbLine
 10
230.89391059
 20
249.4463940976
 30
0.0
 11
220.5552674016
 21
249.4463940976
 31
0.0
  0
SPLINE
  5
2CF
330
1F
100
AcDbEntity
  8
0
  6
SLD-Сплошная
 62
     7
370
    25
100
AcDbSpline
210
0.0
220
0.0
230
1.0
 70
     8
 71
     3
 72
    11
 73
     7
 74
     0
 42
0.00000001
 43
0.00000001
 40
-0.0897866238225071
 40
-0.0897866238225071
 40
-0.0897866238225071
 40
-0.0897866238225071
 40
0.0
 40
0.0
 40
0.0
 40
1.0
 40
1.0
 40
1.0
 40
1.0
 10
186.769423034428
 20
294.3880539769287
 30
0.0
 10
186.7929714806283
 20
294.4431938740577
 30
0.0
 10
186.8165199268286
 20
294.4983337711867
 30
0.0
 10
186.8400683730289
 20
294.5534736683157
 30
0.0
 10
187.1023395800056
 20
295.167595179756
 30
0.0
 10
187.3647938856174
 20
295.7816232359276
 30
0.0
 10
187.6274073497336
 20
296.3955700560987
 30
0.0
  0
SPLINE
  5
2D0
330
1F
100
AcDbEntity
  8
0
  6
SLD-Сплошная
 62
     7
370
    25
100
AcDbSpline
210
0.0
220
0.0
230
1.0
 70
     8
 71
     3
 72
    11
 73
     7
 74
     0
 42
0.00000001
 43
0.00000001
 40
0.0
 40
0.0
 40
0.0
 40
0.0
 40
1.0
 40
1.0
 40
1.0
 40
1.089786619166247
 40
1.089786619166247
 40
1.089786619166247
 40
1.089786619166247
 10
186.9064213679561
 20
215.8934582464101
 30
0.0
 10
186.6547655040094
 20
216.5029872214338
 30
0.0
 10
186.4032702361925
 20
217.1125968775264
 30
0.0
 10
186.1519597209432
 20
217.7222993505204
 30
0.0
 10
186.129395399418
 20
217.7770424742679
 30
0.0
 10
186.1068310778928
 20
217.8317855980153
 30
0.0
 10
186.0842667563677
 20
217.8865287217628
 30
0.0
  0
LWPOLYLINE
  5
2D1
330
1F
100
AcDbEntity
  8
0
  6
SLD-Сплошная
 62
     7
370
    25
100
AcDbPolyline
 90
       41
 70
   128
 43
0.0
 10
224.6030533108
 20
284.3308308205
 10
225.0470082784
 20
284.3009938016
 10
225.8193518182
 20
284.1061016833
 10
226.5838656816
 20
283.7308025373
 10
227.3356284651
 20
283.1775122762
 10
228.0698008471
 20
282.4497925943
 10
228.7816567413
 20
281.5523280402
 10
229.4666137188
 20
280.4908958611
 10
230.1202625073
 20
279.2723288125
 10
230.7383953745
 20
277.9044711738
 10
231.3170332149
 20
276.3961282528
 10
231.852451164
 20
274.7570097028
 10
232.3412025769
 20
272.9976670186
 10
232.7801412148
 20
271.129425614
 10
233.1664414989
 20
269.1643119161
 10
233.497616699
 20
267.1149759479
 10
233.7715349415
 20
264.9946098964
 10
233.9864329331
 20
262.8168631902
 10
234.1409273112
 20
260.5957546344
 10
234.2340235495
 20
258.3455821674
 10
234.2651223597
 20
256.0808308205
 10
234.2340235495
 20
253.8160794735
 10
234.1409273112
 20
251.5659070065
 10
233.9864329331
 20
249.3447984507
 10
233.7715349415
 20
247.1670517445
 10
233.497616699
 20
245.046685693
 10
233.1664414989
 20
242.9973497248
 10
232.7801412148
 20
241.0322360269
 10
232.3412025769
 20
239.1639946223
 10
231.852451164
 20
237.4046519381
 10
231.3170332149
 20
235.7655333881
 10
230.7383953745
 20
234.2571904671
 10
230.1202625073
 20
232.8893328284
 10
229.4666137188
 20
231.6707657798
 10
228.7816567413
 20
230.6093336007
 10
228.0698008471
 20
229.7118690467
 10
227.3356284651
 20
228.9841493647
 10
226.5838656816
 20
228.4308591036
 10
225.8193518182
 20
228.0555599576
 10
225.0470082784
 20
227.8606678394
 10
224.6030533108
 20
227.8308308205
  0
LINE
  5
2D2
330
1F
100
AcDbEntity
  8
0
  6
SLD-Сплошная
 62
     7
370
    25
100
AcDbLine
 10
229.3015164147
 20
281.3308308205
 30
0.0
 11
228.9360584388
 21
281.3308308205
 31
0.0
  0
LWPOLYLINE
  5
2D3
330
1F
100
AcDbEntity
  8
0
  6
SLD-Сплошная
 62
     7
370
    25
100
AcDbPolyline
 90
       38
 70
   128
 43
0.0
 10
229.3015164147
 20
281.3308308205
 10
230.0339011094
 20
281.2398674062
 10
230.7610089556
 20
280.9676325567
 10
231.4776011246
 20
280.5160877305
 10
232.1785145534
 20
279.8884863183
 10
232.8586991447
 20
279.0893502028
 10
233.5132541529
 20
278.1244371778
 10
234.1374634942
 20
277.0006994639
 10
234.726829726
 20
275.726233617
 10
235.277106451
 20
274.3102221928
 10
235.7843289129
 20
272.7628675861
 10
236.2448425622
 20
271.0953185221
 10
236.6553293875
 20
269.3195897303
 10
237.0128318218
 20
267.4484753771
 10
237.3147740519
 20
265.4954568844
 10
237.5589805771
 20
263.4746057952
 10
237.7436918838
 20
261.4004823878
 10
237.8675771228
 20
259.2880307691
 10
237.9297436981
 20
257.1524712012
 10
237.9297436981
 20
255.0091904397
 10
237.8675771228
 20
252.8736308718
 10
237.7436918838
 20
250.7611792531
 10
237.5589805771
 20
248.6870558457
 10
237.3147740519
 20
246.6662047565
 10
237.0128318218
 20
244.7131862638
 10
236.6553293875
 20
242.8420719106
 10
236.2448425622
 20
241.0663431188
 10
235.7843289129
 20
239.3987940549
 10
235.277106451
 20
237.8514394481
 10
234.726829726
 20
236.4354280239
 10
234.1374634942
 20
235.160962177
 10
233.5132541529
 20
234.0372244631
 10
232.8586991447
 20
233.0723114382
 10
232.1785145534
 20
232.2731753226
 10
231.4776011246
 20
231.6455739104
 10
230.7610089556
 20
231.1940290842
 10
230.0339011094
 20
230.9217942348
 10
229.3015164147
 20
230.8308308205
  0
LINE
  5
2D4
330
1F
100
AcDbEntity
  8
0
  6
SLD-Сплошная
 62
     7
370
    25
100
AcDbLine
 10
229.3015164147
 20
230.8308308205
 30
0.0
 11
228.9360584388
 21
230.8308308205
 31
0.0
  0
SPLINE
  5
2D5
330
1F
100
AcDbEntity
  8
0
  6
SLD-Сплошная
 62
     7
370
    25
100
AcDbSpline
210
0.0
220
0.0
230
1.0
 70
     8
 71
     3
 72
    10
 73
     6
 74
     0
 42
0.00000001
 43
0.00000001
 40
0.0
 40
0.0
 40
0.0
 40
0.0
 40
0.3694154769276817
 40
0.8046959914212473
 40
1.0
 40
1.0
 40
1.0
 40
1.0
 10
172.9665846704426
 20
295.6700300544046
 30
0.0
 10
172.9495752059246
 20
295.8210131610296
 30
0.0
 10
172.9125235695727
 20
296.1498989502331
 30
0.0
 10
172.9029925395743
 20
296.5850565960716
 30
0.0
 10
172.9919731749441
 20
296.8339138501819
 30
0.0
 10
173.0195321684458
 20
296.910989670335
 30
0.0
  0
SPLINE
  5
2D6
330
1F
100
AcDbEntity
  8
0
  6
SLD-Сплошная
 62
     7
370
    25
100
AcDbSpline
210
0.0
220
0.0
230
1.0
 70
     8
 71
     3
 72
    10
 73
     6
 74
     0
 42
0.00000001
 43
0.00000001
 40
0.0
 40
0.0
 40
0.0
 40
0.0
 40
0.5
 40
0.5
 40
1.0
 40
1.0
 40
1.0
 40
1.0
 10
174.6033989629059
 20
297.5443066033836
 30
0.0
 10
174.0563615510879
 20
297.5379377750226
 30
0.0
 10
173.7375796348803
 20
297.0295901004787
 30
0.0
 10
173.5582441756683
 20
296.2163620507493
 30
0.0
 10
173.6084278297496
 20
295.9041239038553
 30
0.0
 10
173.6851115371424
 20
295.615017832044
 30
0.0
  0
SPLINE
  5
2D7
330
1F
100
AcDbEntity
  8
0
  6
SLD-Сплошная
 62
     7
370
    25
100
AcDbSpline
210
0.0
220
0.0
230
1.0
 70
     8
 71
     3
 72
     8
 73
     4
 74
     0
 42
0.00000001
 43
0.00000001
 40
0.0
 40
0.0
 40
0.0
 40
0.0
 40
1.0
 40
1.0
 40
1.0
 40
1.0
 10
173.6851115371347
 20
295.6150178320408
 30
0.0
 10
174.077954451239
 20
294.1941819065635
 30
0.0
 10
174.7630782016982
 20
293.1403032010892
 30
0.0
 10
175.2687846293308
 20
293.1739333832411
 30
0.0
  0
LINE
  5
2D8
330
1F
100
AcDbEntity
  8
0
  6
SLD-Сплошная
 62
     7
370
    25
100
AcDbLine
 10
189.2805407766
 20
296.3955700561
 30
0.0
 11
189.250665239
 21
297.1803471062
 31
0.0
  0
ARC
  5
2D9
330
1F
100
AcDbEntity
  8
0
  6
SLD-Сплошная
 62
     7
370
    25
100
AcDbCircle
 10
188.3416203746
 20
297.1786378295
 30
0.0
 40
0.909046471343869
100
AcDbArc
 50
0.1077331024
 51
23.7192449658
  0
LWPOLYLINE
  5
2DA
330
1F
100
AcDbEntity
  8
0
  6
SLD-Сплошная
 62
     7
370
    25
100
AcDbPolyline
 90
        6
 70
   128
 43
0.0
 10
189.1738774473
 20
297.5443066034
 10
189.0917363187
 20
297.677839797
 10
189.004110328
 20
297.7771930123
 10
188.9126536379
 20
297.8404907052
 10
188.8190927255
 20
297.8665379712
 10
188.8011866383
 20
297.8672233212
  0
SPLINE
  5
2DB
330
1F
100
AcDbEntity
  8
0
  6
SLD-Сплошная
 62
     7
370
    25
100
AcDbSpline
210
0.0
220
0.0
230
1.0
 70
     8
 71
     3
 72
    10
 73
     6
 74
     0
 42
0.00000001
 43
0.00000001
 40
0.0
 40
0.0
 40
0.0
 40
0.0
 40
0.5
 40
0.5
 40
1.0
 40
1.0
 40
1.0
 40
1.0
 10
172.9782647402238
 20
216.6916249850265
 30
0.0
 10
172.8959716343215
 20
216.4051521367269
 30
0.0
 10
172.840289810745
 20
216.0940320322625
 30
0.0
 10
173.0059899129542
 20
215.2746547519096
 30
0.0
 10
173.3161267444881
 20
214.7684534239116
 30
0.0
 10
173.8619968313047
 20
214.7626176358619
 30
0.0
  0
SPLINE
  5
2DC
330
1F
100
AcDbEntity
  8
0
  6
SLD-Сплошная
 62
     7
370
    25
100
AcDbSpline
210
0.0
220
0.0
230
1.0
 70
     8
 71
     3
 72
    10
 73
     6
 74
     0
 42
0.00000001
 43
0.00000001
 40
0.0
 40
0.0
 40
0.0
 40
0.0
 40
0.1682936137665926
 40
0.6182272510147598
 40
1.0
 40
1.0
 40
1.0
 40
1.0
 10
172.2787090807807
 20
215.5444793291865
 30
0.0
 10
172.2572144762098
 20
215.6086388335598
 30
0.0
 10
172.1782539619152
 20
215.8443290248124
 30
0.0
 10
172.1978813429425
 20
216.2631330983064
 30
0.0
 10
172.2402771864486
 20
216.5945219484499
 30
0.0
 10
172.2597378735238
 20
216.7466372073879
 30
0.0
  0
LWPOLYLINE
  5
2DD
330
1F
100
AcDbEntity
  8
0
  6
SLD-Сплошная
 62
     7
370
    25
100
AcDbPolyline
 90
       36
 70
   128
 43
0.0
 10
238.040657788
 20
233.4308308205
 10
238.7350716642
 20
233.5220130615
 10
239.4238945281
 20
233.7948256387
 10
240.1015803832
 20
234.2470720257
 10
240.7626729013
 20
234.8751110005
 10
241.4018493542
 20
235.6738859625
 10
242.013963469
 20
236.6369656454
 10
242.5940868627
 20
237.7565958979
 10
243.1375487229
 20
239.0237621155
 10
243.6399734142
 20
240.4282618209
 10
244.0973157084
 20
241.9587868084
 10
244.5058933543
 20
243.6030141906
 10
244.8624167249
 20
245.3477056154
 10
245.1640153037
 20
247.1788138535
 10
245.4082607962
 20
249.0815958979
 10
245.5931866814
 20
251.0407316663
 10
245.7173040448
 20
253.0404473497
 10
245.7796135663
 20
255.064642413
 10
245.7796135663
 20
257.0970192279
 10
245.7173040448
 20
259.1212142912
 10
245.5931866814
 20
261.1209299746
 10
245.4082607962
 20
263.080065743
 10
245.1640153037
 20
264.9828477874
 10
244.8624167249
 20
266.8139560255
 10
244.5058933543
 20
268.5586474503
 10
244.0973157084
 20
270.2028748326
 10
243.6399734142
 20
271.73339982
 10
243.1375487229
 20
273.1378995254
 10
242.5940868627
 20
274.405065743
 10
242.013963469
 20
275.5246959955
 10
241.4018493542
 20
276.4877756784
 10
240.7626729013
 20
277.2865506404
 10
240.1015803832
 20
277.9145896152
 10
239.4238945281
 20
278.3668360022
 10
238.7350716642
 20
278.6396485794
 10
238.040657788
 20
278.7308308205
  0
LINE
  5
2DE
330
1F
100
AcDbEntity
  8
0
  6
SLD-Сплошная
 62
     7
370
    25
100
AcDbLine
 10
233.1183754018
 20
233.4308308205
 30
0.0
 11
238.040657788
 21
233.4308308205
 31
0.0
  0
LINE
  5
2DF
330
1F
100
AcDbEntity
  8
0
  6
SLD-Сплошная
 62
     7
370
    25
100
AcDbLine
 10
233.1183754018
 20
278.7308308205
 30
0.0
 11
238.040657788
 21
278.7308308205
 31
0.0
  0
SPLINE
  5
2E0
330
1F
100
AcDbEntity
  8
0
  6
SLD-Сплошная
 62
     7
370
    25
100
AcDbSpline
210
0.0
220
0.0
230
1.0
 70
     8
 71
     3
 72
     8
 73
     4
 74
     0
 42
0.00000001
 43
0.00000001
 40
0.0
 40
0.0
 40
0.0
 40
0.0
 40
1.0
 40
1.0
 40
1.0
 40
1.0
 10
174.605302744525
 20
219.0924751807318
 30
0.0
 10
174.1001998167073
 20
219.1262291269003
 30
0.0
 10
173.3963543389857
 20
218.0897223937683
 30
0.0
 10
172.9782647402244
 20
216.6916249850257
 30
0.0
  0
LINE
  5
2E1
330
1F
100
AcDbEntity
  8
0
  6
SLD-Сплошная
 62
     7
370
    25
100
AcDbLine
 10
188.5156727297
 20
215.1143282637
 30
0.0
 11
188.5595547948
 21
215.8934582464
 31
0.0
  0
LINE
  5
2E2
330
1F
100
AcDbEntity
  8
0
  6
SLD-Сплошная
 62
     7
370
    25
100
AcDbLine
 10
173.033678781
 20
295.1163895169
 30
0.0
 11
172.9665846704
 21
295.6700300544
 31
0.0
  0
ARC
  5
2E3
330
1F
100
AcDbEntity
  8
0
  6
SLD-Сплошная
 62
     7
370
    25
100
AcDbCircle
 10
187.682793115
 20
215.1256510447
 30
0.0
 40
0.8329565762999278
100
AcDbArc
 50
334.1614258722
 51
359.2211268082
  0
ARC
  5
2E4
330
1F
100
AcDbEntity
  8
0
  6
SLD-Сплошная
 62
     7
370
    25
100
AcDbCircle
 10
188.0241295945
 20
214.931235805
 30
0.0
 40
0.4417898990853521
100
AcDbArc
 50
278.6160256277
 51
337.5628046329
  0
LINE
  5
2E5
330
1F
100
AcDbEntity
  8
0
  6
SLD-Сплошная
 62
     7
370
    25
100
AcDbLine
 10
172.2597378735
 20
216.7466372074
 30
0.0
 11
172.3508875387
 21
217.3191279493
 31
0.0
  0
LINE
  5
2E6
330
1F
100
AcDbEntity
  8
0
  6
SLD-Сплошная
 62
     7
370
    25
100
AcDbLine
 10
258.5053957732
 20
261.1808308205
 30
0.0
 11
245.5884813368
 21
261.1808308205
 31
0.0
  0
ARC
  5
2E7
330
1F
100
AcDbEntity
  8
0
  6
SLD-Сплошная
 62
     7
370
    25
100
AcDbCircle
 10
220.8695074283
 20
256.0808308205
 30
0.0
 40
37.97986429035364
100
AcDbArc
 50
352.2829149884
 51
7.7170850116
  0
LINE
  5
2E8
330
1F
100
AcDbEntity
  8
0
  6
SLD-Сплошная
 62
     7
370
    25
100
AcDbLine
 10
258.5053957732
 20
250.9808308205
 30
0.0
 11
245.5884813368
 21
250.9808308205
 31
0.0
  0
LINE
  5
2E9
330
1F
100
AcDbEntity
  8
0
  6
SLD-Сплошная
 62
     7
370
    25
100
AcDbLine
 10
191.8391557422
 20
12.5210489418
 30
0.0
 11
191.8391557422
 21
38.0210489412
 31
0.0
  0
LINE
  5
2EA
330
1F
100
AcDbEntity
  8
0
  6
SLD-Сплошная
 62
     7
370
    25
100
AcDbLine
 10
181.3775280892
 20
12.5210489418
 30
0.0
 11
181.3775280892
 21
6.7710489417
 31
0.0
  0
LINE
  5
2EB
330
1F
100
AcDbEntity
  8
0
  6
SLD-Сплошная
 62
     7
370
    25
100
AcDbLine
 10
181.3775280892
 20
43.7710489417
 30
0.0
 11
181.3775280892
 21
38.0210489417
 31
0.0
  0
LINE
  5
2EC
330
1F
100
AcDbEntity
  8
0
  6
SLD-Сплошная
 62
     7
370
    25
100
AcDbLine
 10
188.4457508069
 20
-15.1176910895
 30
0.0
 11
191.2648286693
 21
-15.1176910895
 31
0.0
  0
LINE
  5
2ED
330
1F
100
AcDbEntity
  8
0
  6
SLD-Сплошная
 62
     7
370
    25
100
AcDbLine
 10
191.2648286693
 20
65.4597955745
 30
0.0
 11
188.4457508069
 21
65.4597955745
 31
0.0
  0
LINE
  5
2EE
330
1F
100
AcDbEntity
  8
0
  6
SLD-Сплошная
 62
     7
370
    25
100
AcDbLine
 10
191.431903797
 20
-2.9789510583
 30
0.0
 11
210.5552674016
 21
-2.9789510583
 31
0.0
  0
LINE
  5
2EF
330
1F
100
AcDbEntity
  8
0
  6
SLD-Сплошная
 62
     7
370
    25
100
AcDbLine
 10
210.5552674016
 20
53.5210489417
 30
0.0
 11
191.431903797
 21
53.5210489417
 31
0.0
  0
LINE
  5
2F0
330
1F
100
AcDbEntity
  8
0
  6
SLD-Сплошная
 62
     7
370
    25
100
AcDbLine
 10
225.528353187
 20
22.2710489417
 30
0.0
 11
226.041383402
 21
22.2710489417
 31
0.0
  0
LINE
  5
2F1
330
1F
100
AcDbEntity
  8
0
  6
SLD-Сплошная
 62
     7
370
    25
100
AcDbLine
 10
226.041383402
 20
28.2710489417
 30
0.0
 11
225.528353187
 21
28.2710489417
 31
0.0
  0
LINE
  5
2F2
330
1F
100
AcDbEntity
  8
0
  6
SLD-Сплошная
 62
     7
370
    25
100
AcDbLine
 10
176.7619167659
 20
52.7946399714
 30
0.0
 11
176.3226510753
 21
51.4310773144
 31
0.0
  0
LINE
  5
2F3
330
1F
100
AcDbEntity
  8
0
  6
SLD-Сплошная
 62
     7
370
    25
100
AcDbLine
 10
176.3226510753
 20
-1.0889728295
 30
0.0
 11
176.7619167659
 21
-2.4525354864
 31
0.0
  0
LINE
  5
2F4
330
1F
100
AcDbEntity
  8
0
  6
SLD-Сплошная
 62
     7
370
    25
100
AcDbLine
 10
220.5552674016
 20
-2.9789510583
 30
0.0
 11
224.6030533108
 21
-2.9789510583
 31
0.0
  0
LINE
  5
2F5
330
1F
100
AcDbEntity
  8
0
  6
SLD-Сплошная
 62
     7
370
    25
100
AcDbLine
 10
224.6030533108
 20
53.5210489417
 30
0.0
 11
220.5552674016
 21
53.5210489417
 31
0.0
  0
LINE
  5
2F6
330
1F
100
AcDbEntity
  8
0
  6
SLD-Сплошная
 62
     7
370
    25
100
AcDbLine
 10
187.7382814299
 20
-4.7289510583
 30
0.0
 11
191.431903797
 21
-4.7289510583
 31
0.0
  0
LINE
  5
2F7
330
1F
100
AcDbEntity
  8
0
  6
SLD-Сплошная
 62
     7
370
    25
100
AcDbLine
 10
229.2050697278
 20
11.5210489417
 30
0.0
 11
229.7180999428
 21
11.5210489417
 31
0.0
  0
LINE
  5
2F8
330
1F
100
AcDbEntity
  8
0
  6
SLD-Сплошная
 62
     7
370
    25
100
AcDbLine
 10
247.9168682011
 20
22.2710489417
 30
0.0
 11
248.4298984161
 21
22.2710489417
 31
0.0
  0
LINE
  5
2F9
330
1F
100
AcDbEntity
  8
0
  6
SLD-Сплошная
 62
     7
370
    25
100
AcDbLine
 10
248.4298984161
 20
28.2710489417
 30
0.0
 11
247.9168682011
 21
28.2710489417
 31
0.0
  0
LINE
  5
2FA
330
1F
100
AcDbEntity
  8
0
  6
SLD-Сплошная
 62
     7
370
    25
100
AcDbLine
 10
241.808866166
 20
22.2710489417
 30
0.0
 11
242.321896381
 21
22.2710489417
 31
0.0
  0
LINE
  5
2FB
330
1F
100
AcDbEntity
  8
0
  6
SLD-Сплошная
 62
     7
370
    25
100
AcDbLine
 10
242.321896381
 20
28.2710489417
 30
0.0
 11
241.808866166
 21
28.2710489417
 31
0.0
  0
LINE
  5
2FC
330
1F
100
AcDbEntity
  8
0
  6
SLD-Сплошная
 62
     7
370
    25
100
AcDbLine
 10
188.0903149755
 20
66.857448044
 30
0.0
 11
173.5032888703
 21
66.857448044
 31
0.0
  0
LINE
  5
2FD
330
1F
100
AcDbEntity
  8
0
  6
SLD-Сплошная
 62
     7
370
    25
100
AcDbLine
 10
174.2141605331
 20
-16.5153435591
 30
0.0
 11
188.8011866383
 21
-16.5153435591
 31
0.0
  0
LINE
  5
2FE
330
1F
100
AcDbEntity
  8
0
  6
SLD-Сплошная
 62
     7
370
    25
100
AcDbLine
 10
172.330393799
 20
64.0293814821
 30
0.0
 11
172.6616350503
 21
62.0228332688
 31
0.0
  0
SPLINE
  5
2FF
330
1F
100
AcDbEntity
  8
0
  6
SLD-Сплошная
 62
     7
370
    25
100
AcDbSpline
210
0.0
220
0.0
230
1.0
 70
     8
 71
     3
 72
    12
 73
     8
 74
     0
 42
0.00000001
 43
0.00000001
 40
0.0
 40
0.0
 40
0.0
 40
0.0
 40
0.2186226446557412
 40
0.41407834307888
 40
0.5764559802901437
 40
0.705606746267145
 40
1.0
 40
1.0
 40
1.0
 40
1.0
 10
173.5023905987053
 20
66.85741377299405
 30
0.0
 10
173.3723367420928
 20
66.84508963189876
 30
0.0
 10
173.1260105413374
 20
66.82174731101229
 30
0.0
 10
172.8164523109974
 20
66.65666647105117
 30
0.0
 10
172.5992915552563
 20
66.46154664510365
 30
0.0
 10
172.3864341794933
 20
66.18299473967215
 30
0.0
 10
172.327707813866
 20
65.95989288878329
 30
0.0
 10
172.2868888079247
 20
65.8048212156146
 30
0.0
  0
LINE
  5
300
330
1F
100
AcDbEntity
  8
0
  6
SLD-Сплошная
 62
     7
370
    25
100
AcDbLine
 10
172.2468232881
 20
64.6250110628
 30
0.0
 11
172.3215775226
 21
64.0885253363
 31
0.0
  0
SPLINE
  5
301
330
1F
100
AcDbEntity
  8
0
  6
SLD-Сплошная
 62
     7
370
    25
100
AcDbSpline
210
0.0
220
0.0
230
1.0
 70
     8
 71
     3
 72
     9
 73
     5
 74
     0
 42
0.00000001
 43
0.00000001
 40
0.0
 40
0.0
 40
0.0
 40
0.0
 40
0.5325048757204642
 40
1.0
 40
1.0
 40
1.0
 40
1.0
 10
172.2196612415138
 20
65.60463213624199
 30
0.0
 10
172.2058657885773
 20
65.42495977151161
 30
0.0
 10
172.1799590719152
 20
65.08754996941869
 30
0.0
 10
172.225530288295
 20
64.77239565417506
 30
0.0
 10
172.2468346097601
 20
64.62506254840302
 30
0.0
  0
LINE
  5
302
330
1F
100
AcDbEntity
  8
0
  6
SLD-Сплошная
 62
     7
370
    25
100
AcDbLine
 10
173.2640823075
 20
-12.1344884346
 30
0.0
 11
173.0253089757
 21
-13.763279232
 31
0.0
  0
LINE
  5
303
330
1F
100
AcDbEntity
  8
0
  6
SLD-Сплошная
 62
     7
370
    25
100
AcDbLine
 10
173.0176406523
 20
-13.8212141708
 30
0.0
 11
172.9540266401
 21
-14.344258191
 31
0.0
  0
SPLINE
  5
304
330
1F
100
AcDbEntity
  8
0
  6
SLD-Сплошная
 62
     7
370
    25
100
AcDbSpline
210
0.0
220
0.0
230
1.0
 70
     8
 71
     3
 72
    12
 73
     8
 74
     0
 42
0.00000001
 43
0.00000001
 40
0.0
 40
0.0
 40
0.0
 40
0.0
 40
0.2822192087945534
 40
0.4081932214779754
 40
0.5713585269704234
 40
0.7720898389813262
 40
1.0
 40
1.0
 40
1.0
 40
1.0
 10
173.0314696777903
 20
-15.55515717143747
 30
0.0
 10
173.0714848984383
 20
-15.69141889776677
 30
0.0
 10
173.1293616882368
 20
-15.88850368612005
 30
0.0
 10
173.3319658348001
 20
-16.13937085205045
 30
0.0
 10
173.5413535145353
 20
-16.3219120376671
 30
0.0
 10
173.8433217308117
 20
-16.48007117211199
 30
0.0
 10
174.0846901094415
 20
-16.50307686427177
 30
0.0
 10
174.2130265152715
 20
-16.51530907075292
 30
0.0
  0
LINE
  5
305
330
1F
100
AcDbEntity
  8
0
  6
SLD-Сплошная
 62
     7
370
    25
100
AcDbLine
 10
218.5552674016
 20
-20.7289510583
 30
0.0
 11
210.5552674016
 21
-20.7540838822
 31
0.0
  0
LINE
  5
306
330
1F
100
AcDbEntity
  8
0
  6
SLD-Сплошная
 62
     7
370
    25
100
AcDbLine
 10
218.5552674016
 20
71.2710489417
 30
0.0
 11
210.5552674016
 21
71.2961817656
 31
0.0
  0
LINE
  5
307
330
1F
100
AcDbEntity
  8
0
  6
SLD-Сплошная
 62
     7
370
    25
100
AcDbLine
 10
210.5552674016
 20
-20.7540838822
 30
0.0
 11
210.5552674016
 21
71.2961817656
 31
0.0
  0
LINE
  5
308
330
1F
100
AcDbEntity
  8
0
  6
SLD-Сплошная
 62
     7
370
    25
100
AcDbLine
 10
218.5552674016
 20
-20.7289510583
 30
0.0
 11
220.5552674016
 21
-20.7289510583
 31
0.0
  0
LINE
  5
309
330
1F
100
AcDbEntity
  8
0
  6
SLD-Сплошная
 62
     7
370
    25
100
AcDbLine
 10
220.5552674016
 20
-20.7289510583
 30
0.0
 11
220.5552674016
 21
71.2710489417
 31
0.0
  0
LINE
  5
30A
330
1F
100
AcDbEntity
  8
0
  6
SLD-Сплошная
 62
     7
370
    25
100
AcDbLine
 10
218.5552674016
 20
71.2710489417
 30
0.0
 11
220.5552674016
 21
71.2710489417
 31
0.0
  0
LINE
  5
30B
330
1F
100
AcDbEntity
  8
0
  6
SLD-Сплошная
 62
     7
370
    25
100
AcDbLine
 10
185.3012944494
 20
12.5210489417
 30
0.0
 11
210.5552674016
 21
12.5210489417
 31
0.0
  0
LINE
  5
30C
330
1F
100
AcDbEntity
  8
0
  6
SLD-Сплошная
 62
     7
370
    25
100
AcDbLine
 10
210.5552674016
 20
6.7710489417
 30
0.0
 11
184.3294685439
 21
6.7710489417
 31
0.0
  0
LINE
  5
30D
330
1F
100
AcDbEntity
  8
0
  6
SLD-Сплошная
 62
     7
370
    25
100
AcDbLine
 10
210.5552674016
 20
43.7710489417
 30
0.0
 11
184.3294685439
 21
43.7710489417
 31
0.0
  0
LINE
  5
30E
330
1F
100
AcDbEntity
  8
0
  6
SLD-Сплошная
 62
     7
370
    25
100
AcDbLine
 10
210.5552674016
 20
38.0210489417
 30
0.0
 11
185.3012944494
 21
38.0210489417
 31
0.0
  0
LINE
  5
30F
330
1F
100
AcDbEntity
  8
0
  6
SLD-Сплошная
 62
     7
370
    25
100
AcDbLine
 10
180.903141743
 20
12.5210489418
 30
0.0
 11
180.8630257239
 21
38.0210489412
 31
0.0
  0
LINE
  5
310
330
1F
100
AcDbEntity
  8
0
  6
SLD-Сплошная
 62
     7
370
    25
100
AcDbLine
 10
180.8630332722
 20
38.0210489412
 30
0.0
 11
185.3012944494
 21
38.0210489412
 31
0.0
  0
LINE
  5
311
330
1F
100
AcDbEntity
  8
0
  6
SLD-Сплошная
 62
     7
370
    25
100
AcDbLine
 10
180.9185012763
 20
12.5210489418
 30
0.0
 11
185.3012944494
 21
12.5210489418
 31
0.0
  0
LINE
  5
312
330
1F
100
AcDbEntity
  8
0
  6
SLD-Сплошная
 62
     7
370
    25
100
AcDbLine
 10
181.3775280892
 20
6.7710489417
 30
0.0
 11
184.3294685439
 21
6.7710489417
 31
0.0
  0
LINE
  5
313
330
1F
100
AcDbEntity
  8
0
  6
SLD-Сплошная
 62
     7
370
    25
100
AcDbLine
 10
181.3775280892
 20
43.7710489417
 30
0.0
 11
184.3294685439
 21
43.7710489417
 31
0.0
  0
ELLIPSE
  5
314
330
1F
100
AcDbEntity
  8
0
  6
SLD-Сплошная
 62
     7
370
    25
100
AcDbEllipse
 10
176.1035676114
 20
25.1710422185
 30
0.0
 11
2.842170943040401E-13
 21
37.88115398794612
 31
0.0
210
0.0
220
0.0
230
1.0
 40
0.1049024915
 41
4.371909630750694
 42
5.058475514573686
  0
LINE
  5
315
330
1F
100
AcDbEntity
  8
0
  6
SLD-Сплошная
 62
     7
370
    25
100
AcDbLine
 10
180.8630257239
 20
38.0210489412
 30
0.0
 11
179.8417766235
 21
38.0210489412
 31
0.0
  0
LINE
  5
316
330
1F
100
AcDbEntity
  8
0
  6
SLD-Сплошная
 62
     7
370
    25
100
AcDbLine
 10
180.903141743
 20
12.5210489418
 30
0.0
 11
179.8492762904
 21
12.5210489418
 31
0.0
  0
LWPOLYLINE
  5
317
330
1F
100
AcDbEntity
  8
0
  6
SLD-Сплошная
 62
     7
370
    25
100
AcDbPolyline
 90
       12
 70
   128
 43
0.0
 10
234.3639412473
 20
23.0210489417
 10
234.5807472186
 20
23.1121897511
 10
234.7799888595
 20
23.3782284929
 10
234.9455247972
 20
23.7976122904
 10
235.0639442945
 20
24.3363651625
 10
235.125653708
 20
24.9508405556
 10
235.125653708
 20
25.5912573279
 10
235.0639442945
 20
26.205732721
 10
234.9455247972
 20
26.7444855931
 10
234.7799888595
 20
27.1638693906
 10
234.5807472186
 20
27.4299081324
 10
234.3639412473
 20
27.5210489417
  0
LINE
  5
318
330
1F
100
AcDbEntity
  8
0
  6
SLD-Сплошная
 62
     7
370
    25
100
AcDbLine
 10
234.3639412473
 20
27.5210489417
 30
0.0
 11
231.4396690218
 21
27.5210489417
 31
0.0
  0
LINE
  5
319
330
1F
100
AcDbEntity
  8
0
  6
SLD-Сплошная
 62
     7
370
    25
100
AcDbLine
 10
231.4396690218
 20
27.5210489417
 30
0.0
 11
231.4396690218
 21
23.0210489417
 31
0.0
  0
LINE
  5
31A
330
1F
100
AcDbEntity
  8
0
  6
SLD-Сплошная
 62
     7
370
    25
100
AcDbLine
 10
231.4396690218
 20
23.0210489417
 30
0.0
 11
234.3639412473
 21
23.0210489417
 31
0.0
  0
LINE
  5
31B
330
1F
100
AcDbEntity
  8
0
  6
SLD-Сплошная
 62
     7
370
    25
100
AcDbLine
 10
236.0673493854
 20
42.2217538178
 30
0.0
 11
235.299981778
 21
38.3209703173
 31
0.0
  0
LINE
  5
31C
330
1F
100
AcDbEntity
  8
0
  6
SLD-Сплошная
 62
     7
370
    25
100
AcDbLine
 10
235.299981778
 20
38.3209703173
 30
0.0
 11
237.8348601886
 21
34.0580680221
 31
0.0
  0
LWPOLYLINE
  5
31D
330
1F
100
AcDbEntity
  8
0
  6
SLD-Сплошная
 62
     7
370
    25
100
AcDbPolyline
 90
       12
 70
   128
 43
0.0
 10
237.8348601886
 20
34.0580680221
 10
238.0383383354
 20
33.8210203913
 10
238.2564156727
 20
33.76118609
 10
238.4714248718
 20
33.8834125374
 10
238.6659471659
 20
34.1777976736
 10
238.8242235157
 20
34.6204921656
 10
238.9334313127
 20
35.1756315386
 10
238.9847231905
 20
35.7982417021
 10
238.9739437864
 20
36.4378824834
 10
238.9019663834
 20
37.0427339905
 10
238.7746221628
 20
37.5637947515
 10
238.602227796
 20
37.9588515225
  0
LINE
  5
31E
330
1F
100
AcDbEntity
  8
0
  6
SLD-Сплошная
 62
     7
370
    25
100
AcDbLine
 10
238.602227796
 20
37.9588515225
 30
0.0
 11
236.0673493854
 21
42.2217538178
 31
0.0
  0
LINE
  5
31F
330
1F
100
AcDbEntity
  8
0
  6
SLD-Сплошная
 62
     7
370
    25
100
AcDbLine
 10
235.3215976486
 20
16.7769738721
 30
0.0
 11
235.3215976486
 21
12.2769738721
 31
0.0
  0
LINE
  5
320
330
1F
100
AcDbEntity
  8
0
  6
SLD-Сплошная
 62
     7
370
    25
100
AcDbLine
 10
235.3215976486
 20
12.2769738721
 30
0.0
 11
238.162711977
 21
12.2769738721
 31
0.0
  0
LWPOLYLINE
  5
321
330
1F
100
AcDbEntity
  8
0
  6
SLD-Сплошная
 62
     7
370
    25
100
AcDbPolyline
 90
       12
 70
   128
 43
0.0
 10
238.162711977
 20
12.2769738721
 10
238.3795179483
 20
12.3681146814
 10
238.5787595892
 20
12.6341534232
 10
238.7442955269
 20
13.0535372207
 10
238.8627150242
 20
13.5922900928
 10
238.9244244377
 20
14.2067654859
 10
238.9244244377
 20
14.8471822582
 10
238.8627150242
 20
15.4616576513
 10
238.7442955269
 20
16.0004105234
 10
238.5787595892
 20
16.4197943209
 10
238.3795179483
 20
16.6858330627
 10
238.162711977
 20
16.7769738721
  0
LINE
  5
322
330
1F
100
AcDbEntity
  8
0
  6
SLD-Сплошная
 62
     7
370
    25
100
AcDbLine
 10
238.162711977
 20
16.7769738721
 30
0.0
 11
235.3215976486
 21
16.7769738721
 31
0.0
  0
LWPOLYLINE
  5
323
330
1F
100
AcDbEntity
  8
0
  6
SLD-Сплошная
 62
     7
370
    25
100
AcDbPolyline
 90
       16
 70
   128
 43
0.0
 10
238.040657788
 20
47.9210489417
 10
238.7350716642
 20
47.8298667007
 10
239.4238945281
 20
47.5570541235
 10
240.1015803832
 20
47.1048077365
 10
240.7626729013
 20
46.4767687617
 10
241.4018493542
 20
45.6779937997
 10
242.013963469
 20
44.7149141168
 10
242.5940868627
 20
43.5952838643
 10
243.1375487229
 20
42.3281176467
 10
243.6399734142
 20
40.9236179413
 10
244.0973157084
 20
39.3930929538
 10
244.5058933543
 20
37.7488655716
 10
244.8624167249
 20
36.0041741467
 10
245.1640153037
 20
34.1730659087
 10
245.4082607962
 20
32.2702838643
 10
245.5884813368
 20
30.3710489417
  0
LWPOLYLINE
  5
324
330
1F
100
AcDbEntity
  8
0
  6
SLD-Сплошная
 62
     7
370
    25
100
AcDbPolyline
 90
       16
 70
   128
 43
0.0
 10
245.5884813368
 20
20.1710489417
 10
245.4082607962
 20
18.2718140191
 10
245.1640153037
 20
16.3690319748
 10
244.8624167249
 20
14.5379237367
 10
244.5058933543
 20
12.7932323118
 10
244.0973157084
 20
11.1490049296
 10
243.6399734142
 20
9.6184799422
 10
243.1375487229
 20
8.2139802368
 10
242.5940868627
 20
6.9468140191
 10
242.013963469
 20
5.8271837667
 10
241.4018493542
 20
4.8641040837
 10
240.7626729013
 20
4.0653291217
 10
240.1015803832
 20
3.437290147
 10
239.4238945281
 20
2.98504376
 10
238.7350716642
 20
2.7122311827
 10
238.040657788
 20
2.6210489417
  0
LWPOLYLINE
  5
325
330
1F
100
AcDbEntity
  8
0
  6
SLD-Сплошная
 62
     7
370
    25
100
AcDbPolyline
 90
       36
 70
   128
 43
0.0
 10
238.040657788
 20
2.6210489417
 10
237.3462439119
 20
2.7122311827
 10
236.6574210479
 20
2.98504376
 10
235.9797351929
 20
3.437290147
 10
235.3186426748
 20
4.0653291217
 10
234.6794662218
 20
4.8641040837
 10
234.067352107
 20
5.8271837667
 10
233.4872287133
 20
6.9468140191
 10
232.9437668531
 20
8.2139802368
 10
232.4413421619
 20
9.6184799422
 10
231.9839998676
 20
11.1490049296
 10
231.5754222217
 20
12.7932323118
 10
231.2188988511
 20
14.5379237367
 10
230.9173002723
 20
16.3690319748
 10
230.6730547798
 20
18.2718140191
 10
230.4881288946
 20
20.2309497876
 10
230.3640115313
 20
22.230665471
 10
230.3017020098
 20
24.2548605343
 10
230.3017020098
 20
26.2872373492
 10
230.3640115313
 20
28.3114324125
 10
230.4881288946
 20
30.3111480958
 10
230.6730547798
 20
32.2702838643
 10
230.9173002723
 20
34.1730659087
 10
231.2188988511
 20
36.0041741467
 10
231.5754222217
 20
37.7488655716
 10
231.9839998676
 20
39.3930929538
 10
232.4413421619
 20
40.9236179413
 10
232.9437668531
 20
42.3281176467
 10
233.4872287133
 20
43.5952838643
 10
234.067352107
 20
44.7149141168
 10
234.6794662218
 20
45.6779937997
 10
235.3186426748
 20
46.4767687617
 10
235.9797351929
 20
47.1048077365
 10
236.6574210479
 20
47.5570541235
 10
237.3462439119
 20
47.8298667007
 10
238.040657788
 20
47.9210489417
  0
LINE
  5
326
330
1F
100
AcDbEntity
  8
0
  6
SLD-Сплошная
 62
     7
370
    25
100
AcDbLine
 10
238.0919608095
 20
30.3710489417
 30
0.0
 11
238.0919608095
 21
28.3710489417
 31
0.0
  0
LINE
  5
327
330
1F
100
AcDbEntity
  8
0
  6
SLD-Сплошная
 62
     7
370
    25
100
AcDbLine
 10
238.0919608095
 20
28.3710489417
 30
0.0
 11
238.0919608095
 21
22.1710489417
 31
0.0
  0
LINE
  5
328
330
1F
100
AcDbEntity
  8
0
  6
SLD-Сплошная
 62
     7
370
    25
100
AcDbLine
 10
238.0919608095
 20
22.1710489417
 30
0.0
 11
238.0919608095
 21
20.1710489417
 31
0.0
  0
LINE
  5
329
330
1F
100
AcDbEntity
  8
0
  6
SLD-Сплошная
 62
     7
370
    25
100
AcDbLine
 10
229.3015164147
 20
2.6210489417
 30
0.0
 11
238.040657788
 21
2.6210489417
 31
0.0
  0
LWPOLYLINE
  5
32A
330
1F
100
AcDbEntity
  8
0
  6
SLD-Сплошная
 62
     7
370
    25
100
AcDbPolyline
 90
       11
 70
   128
 43
0.0
 10
223.2168482565
 20
11.2523151896
 10
223.674233894
 20
9.7044540713
 10
224.1775161989
 20
8.2835556253
 10
224.7225903514
 20
7.0012088384
 10
225.3050106733
 20
5.8678726567
 10
225.9200268875
 20
4.892790681
 10
226.5626228614
 20
4.0839157754
 10
227.2275575193
 20
3.4478452029
 10
227.9094075891
 20
2.9897668173
 10
228.6026118348
 20
2.7134167508
 10
229.3015164147
 20
2.6210489417
  0
LINE
  5
32B
330
1F
100
AcDbEntity
  8
0
  6
SLD-Сплошная
 62
     7
370
    25
100
AcDbLine
 10
230.0766043882
 20
11.2523151896
 30
0.0
 11
223.2168482565
 21
11.2523151896
 31
0.0
  0
ARC
  5
32C
330
1F
100
AcDbEntity
  8
0
  6
SLD-Сплошная
 62
     7
370
    25
100
AcDbCircle
 10
274.9804080707
 20
23.0612922868
 30
0.0
 40
46.43063132497967
100
AcDbArc
 50
186.6899124433
 51
194.7342385625
  0
LINE
  5
32D
330
1F
100
AcDbEntity
  8
0
  6
SLD-Сплошная
 62
     7
370
    25
100
AcDbLine
 10
228.8659147741
 20
17.6523151896
 30
0.0
 11
222.0061586424
 21
17.6523151896
 31
0.0
  0
ARC
  5
32E
330
1F
100
AcDbEntity
  8
0
  6
SLD-Сплошная
 62
     7
370
    25
100
AcDbCircle
 10
282.633506882
 20
25.0047840923
 30
0.0
 40
61.07154946067416
100
AcDbArc
 50
182.7534156119
 51
186.9146726014
  0
LINE
  5
32F
330
1F
100
AcDbEntity
  8
0
  6
SLD-Сплошная
 62
     7
370
    25
100
AcDbLine
 10
228.4922191571
 20
22.0710489417
 30
0.0
 11
221.6324630254
 21
22.0710489417
 31
0.0
  0
ARC
  5
330
330
1F
100
AcDbEntity
  8
0
  6
SLD-Сплошная
 62
     7
370
    25
100
AcDbCircle
 10
294.2964701917
 20
25.2710489417
 30
0.0
 40
65.88201161335742
100
AcDbArc
 50
177.2159522959
 51
182.7840477041
  0
LINE
  5
331
330
1F
100
AcDbEntity
  8
0
  6
SLD-Сплошная
 62
     7
370
    25
100
AcDbLine
 10
228.4922191571
 20
28.4710489417
 30
0.0
 11
221.6324630254
 21
28.4710489417
 31
0.0
  0
ARC
  5
332
330
1F
100
AcDbEntity
  8
0
  6
SLD-Сплошная
 62
     7
370
    25
100
AcDbCircle
 10
269.1905630078
 20
26.9141619109
 30
0.0
 40
47.58357669578774
100
AcDbArc
 50
162.1467791068
 51
178.1250047661
  0
LINE
  5
333
330
1F
100
AcDbEntity
  8
0
  6
SLD-Сплошная
 62
     7
370
    25
100
AcDbLine
 10
230.7581282554
 20
41.5023151896
 30
0.0
 11
223.8983721237
 21
41.5023151896
 31
0.0
  0
ARC
  5
334
330
1F
100
AcDbEntity
  8
0
  6
SLD-Сплошная
 62
     7
370
    25
100
AcDbCircle
 10
247.245188447
 20
36.0421196146
 30
0.0
 40
17.36769672342955
100
AcDbArc
 50
146.7454277605
 51
161.6761276477
  0
LINE
  5
335
330
1F
100
AcDbEntity
  8
0
  6
SLD-Сплошная
 62
     7
370
    25
100
AcDbLine
 10
232.7215840732
 20
45.5658691636
 30
0.0
 11
225.8618279415
 21
45.5658691636
 31
0.0
  0
ARC
  5
336
330
1F
100
AcDbEntity
  8
0
  6
SLD-Сплошная
 62
     7
370
    25
100
AcDbCircle
 10
229.845438773
 20
43.437277531
 30
0.0
 40
4.516642292166152
100
AcDbArc
 50
96.9167041312
 51
151.882749851
  0
LINE
  5
337
330
1F
100
AcDbEntity
  8
0
  6
SLD-Сплошная
 62
     7
370
    25
100
AcDbLine
 10
229.3015164147
 20
47.9210489417
 30
0.0
 11
238.040657788
 21
47.9210489417
 31
0.0
  0
LWPOLYLINE
  5
338
330
1F
100
AcDbEntity
  8
0
  6
SLD-Сплошная
 62
     7
370
    25
100
AcDbPolyline
 90
       51
 70
   128
 43
0.0
 10
183.6593788877
 20
-8.425159611
 10
182.9010036215
 20
-6.8473097583
 10
182.1807905708
 20
-5.1233674636
 10
181.5020259023
 20
-3.2611986801
 10
180.8678066637
 20
-1.2693000568
 10
180.2810266518
 20
0.8432398296
 10
179.7443632093
 20
3.0667819442
 10
179.2602650084
 20
5.3911807744
 10
178.8309408781
 20
7.8058306214
 10
178.4583497259
 20
10.2997139917
 10
178.1441915998
 20
12.8614518676
 10
177.8898999314
 20
15.4793556266
 10
177.6966349951
 20
18.1414803745
 10
177.5652786145
 20
20.8356794464
 10
177.4964301387
 20
23.5496598301
 10
177.4904037075
 20
26.2710382554
 10
177.547226818
 20
28.9873976969
 10
177.6666401996
 20
31.6863440294
 10
177.8480989962
 20
34.3555625798
 10
178.0907752531
 20
36.9828743161
 10
178.3935616941
 20
39.5562914175
 10
178.7550767742
 20
42.0640719718
 10
179.1736709829
 20
44.4947735518
 10
179.647434371
 20
46.8373054235
 10
180.1742052646
 20
49.0809791513
 10
180.7515801291
 20
51.2155573666
 10
181.3769245353
 20
53.2313004786
 10
182.0473851803
 20
55.1190111138
 10
182.7599029057
 20
56.8700760815
 10
183.5112266567
 20
58.476505674
 10
184.2979283154
 20
59.9309701214
 10
185.1164183424
 20
61.226833036
 10
185.9629621555
 20
62.3581816927
 10
186.8336971696
 20
63.3198540069
 10
187.7246504203
 20
64.1074620885
 10
188.6317566924
 20
64.7174122624
 10
189.550877068
 20
65.1469214659
 10
190.4778178116
 20
65.394029947
 10
191.4083495053
 20
65.4576102063
 10
192.3382263463
 20
65.3373721419
 10
193.2632055199
 20
65.0338643722
 10
194.1790665583
 20
64.5484717338
 10
195.0816305977
 20
63.8834089618
 10
195.9667794452
 20
63.0417105852
 10
196.8304743698
 20
62.0272170806
 10
197.6687745296
 20
60.8445573492
 10
198.4778549532
 20
59.4991275961
 10
199.2540239923
 20
57.9970667086
 10
199.9937401656
 20
56.3452282461
 10
200.6936283177
 20
54.5511491686
 10
201.0555728647
 20
53.5210489417
  0
LWPOLYLINE
  5
339
330
1F
100
AcDbEntity
  8
0
  6
SLD-Сплошная
 62
     7
370
    25
100
AcDbPolyline
 90
       22
 70
   128
 43
0.0
 10
201.1228445531
 20
-2.9789510583
 10
200.8229554788
 20
-3.8496078611
 10
200.1310715675
 20
-5.6700342323
 10
199.3987330235
 20
-7.3497397997
 10
198.6292813395
 20
-8.8810604519
 10
197.8262273471
 20
-10.2570091241
 10
196.9932351974
 20
-11.4713076781
 10
196.1341056426
 20
-12.5184155481
 10
195.2527586939
 20
-13.393555021
 10
194.353215735
 20
-14.0927330361
 10
193.4395811744
 20
-14.6127594046
 10
192.5160237168
 20
-14.9512613653
 10
191.5867573433
 20
-15.1066944115
 10
190.656022083
 20
-15.0783493379
 10
189.7280646676
 20
-14.8663554764
 10
188.8071191538
 20
-14.4716801065
 10
187.8973876049
 20
-13.8961240413
 10
187.0030209171
 20
-13.1423134112
 10
186.1280998807
 20
-12.2136876812
 10
185.2766165595
 20
-11.1144839575
 10
184.4524560768
 20
-9.8497176546
 10
183.6593788877
 20
-8.425159611
  0
ARC
  5
33A
330
1F
100
AcDbEntity
  8
0
  6
SLD-Сплошная
 62
     7
370
    25
100
AcDbCircle
 10
191.2588137655
 20
51.913313226
 30
0.0
 40
3.725485958952082
100
AcDbArc
 50
72.7753323013
 51
115.9810027048
  0
LINE
  5
33B
330
1F
100
AcDbEntity
  8
0
  6
SLD-Сплошная
 62
     7
370
    25
100
AcDbLine
 10
189.5787050082
 20
60.6299765025
 30
0.0
 11
189.6267785313
 21
55.2622991359
 31
0.0
  0
LWPOLYLINE
  5
33C
330
1F
100
AcDbEntity
  8
0
  6
SLD-Сплошная
 62
     7
370
    25
100
AcDbPolyline
 90
       42
 70
   128
 43
0.0
 10
190.2157287979
 20
-10.497287604
 10
189.35098491
 20
-10.1889148081
 10
188.4959288237
 20
-9.7015512541
 10
187.6548887992
 20
-9.0376639571
 10
186.8321221478
 20
-8.2006134885
 10
186.031793682
 20
-7.1946369646
 10
185.2579546328
 20
-6.024826599
 10
184.514522143
 20
-4.6971039255
 10
183.8052594385
 20
-3.218189824
 10
183.1337567791
 20
-1.5955704993
 10
182.5034132848
 20
0.1625404136
 10
181.9174197294
 20
2.0472434267
 10
181.3787423894
 20
4.0489982476
 10
180.890108028
 20
6.1576720725
 10
180.4539900931
 20
8.3625908776
 10
180.0725961966
 20
10.6525934509
 10
179.7478569392
 20
13.0160878898
 10
179.4814161384
 20
15.4411102787
 10
179.2746225068
 20
17.9153852498
 10
179.1285228257
 20
20.4263881211
 10
179.043856646
 20
22.9614082949
 10
179.0210525445
 20
25.5076135991
 10
179.0602259546
 20
28.0521152431
 10
179.1611785821
 20
30.5820330598
 10
179.3233994088
 20
33.0845607052
 10
179.5460672793
 20
35.5470304829
 10
179.8280550575
 20
37.9569774681
 10
180.1679353325
 20
40.3022026044
 10
180.5639876438
 20
42.5708344545
 10
181.0142071901
 20
44.7513892936
 10
181.5163149779
 20
46.8328292391
 10
182.0677693573
 20
48.8046181242
 10
182.6657788882
 20
50.6567748312
 10
183.3073164697
 20
52.379923816
 10
183.989134664
 20
53.9653425665
 10
184.7077821343
 20
55.4050057555
 10
185.4596211154
 20
56.6916258647
 10
186.2408458282
 20
57.8186900739
 10
187.0475017438
 20
58.7804932285
 10
187.8755056019
 20
59.572166719
 10
188.7206660797
 20
60.1897031253
 10
189.5787050082
 20
60.6299765025
  0
LINE
  5
33D
330
1F
100
AcDbEntity
  8
0
  6
SLD-Сплошная
 62
     7
370
    25
100
AcDbLine
 10
190.1676552747
 20
-5.1296102373
 30
0.0
 11
190.2157287979
 21
-10.497287604
 31
0.0
  0
ARC
  5
33E
330
1F
100
AcDbEntity
  8
0
  6
SLD-Сплошная
 62
     7
370
    25
100
AcDbCircle
 10
191.2708435729
 20
-1.571208741
 30
0.0
 40
3.725485958997899
100
AcDbArc
 50
252.7753323036
 51
295.9810027068
  0
LINE
  5
33F
330
1F
100
AcDbEntity
  8
0
  6
SLD-Сплошная
 62
     7
370
    25
100
AcDbLine
 10
192.9509523304
 20
-10.2878720176
 30
0.0
 11
192.9028788072
 21
-4.9201946508
 31
0.0
  0
LWPOLYLINE
  5
340
330
1F
100
AcDbEntity
  8
0
  6
SLD-Сплошная
 62
     7
370
    25
100
AcDbPolyline
 90
        9
 70
   128
 43
0.0
 10
192.9509523304
 20
-10.2878720176
 10
193.8089912588
 20
-9.8475986404
 10
194.6541517366
 20
-9.2300622341
 10
195.4821555947
 20
-8.4383887436
 10
196.2888115104
 20
-7.476585589
 10
197.0700362231
 20
-6.3495213798
 10
197.8218752042
 20
-5.0629012706
 10
198.5405226745
 20
-3.6232380816
 10
198.8297119405
 20
-2.9789510583
  0
LWPOLYLINE
  5
341
330
1F
100
AcDbEntity
  8
0
  6
SLD-Сплошная
 62
     7
370
    25
100
AcDbPolyline
 90
       10
 70
   128
 43
0.0
 10
198.7418370042
 20
53.5210489417
 10
198.7243979
 20
53.560294309
 10
198.0151351955
 20
55.0392084104
 10
197.2717027057
 20
56.3669310839
 10
196.4978636565
 20
57.5367414495
 10
195.6975351907
 20
58.5427179734
 10
194.8747685394
 20
59.379768442
 10
194.0337285148
 20
60.043655739
 10
193.1786724286
 20
60.531019293
 10
192.3139285407
 20
60.839392089
  0
LINE
  5
342
330
1F
100
AcDbEntity
  8
0
  6
SLD-Сплошная
 62
     7
370
    25
100
AcDbLine
 10
192.3620020638
 20
55.4717147223
 30
0.0
 11
192.3139285407
 21
60.839392089
 31
0.0
  0
LINE
  5
343
330
1F
100
AcDbEntity
  8
0
  6
SLD-Сплошная
 62
     7
370
    25
100
AcDbLine
 10
188.4457508069
 20
-15.1176910895
 30
0.0
 11
188.331946819
 21
-15.1163170309
 31
0.0
  0
LINE
  5
344
330
1F
100
AcDbEntity
  8
0
  6
SLD-Сплошная
 62
     7
370
    25
100
AcDbLine
 10
186.6788133922
 20
-15.1163170308
 30
0.0
 11
188.331946819
 21
-15.1163170309
 31
0.0
  0
LWPOLYLINE
  5
345
330
1F
100
AcDbEntity
  8
0
  6
SLD-Сплошная
 62
     7
370
    25
100
AcDbPolyline
 90
        9
 70
   128
 43
0.0
 10
179.2720567546
 20
-8.5881331373
 10
180.1116956942
 20
-10.065540182
 10
180.9851242793
 20
-11.3647334979
 10
181.8879250292
 20
-12.479142243
 10
182.8155319096
 20
-13.4031301475
 10
183.7632534261
 20
-14.1320240204
 10
184.7262963516
 20
-14.6621373844
 10
185.6997899691
 20
-14.9907891211
 10
186.6788133922
 20
-15.1163170308
  0
LINE
  5
346
330
1F
100
AcDbEntity
  8
0
  6
SLD-Сплошная
 62
     7
370
    25
100
AcDbLine
 10
168.91003853
 20
-8.5881331578
 30
0.0
 11
179.2720567546
 21
-8.5881331373
 31
0.0
  0
ARC
  5
347
330
1F
100
AcDbEntity
  8
0
  6
SLD-Сплошная
 62
     7
370
    25
100
AcDbCircle
 10
195.3231917024
 20
5.2628472699
 30
0.0
 40
29.82455899616837
100
AcDbArc
 50
205.2413839571
 51
207.6723854769
  0
LINE
  5
348
330
1F
100
AcDbEntity
  8
0
  6
SLD-Сплошная
 62
     7
370
    25
100
AcDbLine
 10
178.7083244442
 20
-7.4553206839
 30
0.0
 11
168.3463030157
 21
-7.4553206839
 31
0.0
  0
ARC
  5
349
330
1F
100
AcDbEntity
  8
0
  6
SLD-Сплошная
 62
     7
370
    25
100
AcDbCircle
 10
236.9432192475
 20
17.5756559059
 30
0.0
 40
63.38653454628072
100
AcDbArc
 50
186.1509546268
 51
203.2593774623
  0
LINE
  5
34A
330
1F
100
AcDbEntity
  8
0
  6
SLD-Сплошная
 62
     7
370
    25
100
AcDbLine
 10
163.5595797369
 20
10.7838951969
 30
0.0
 11
173.9215979677
 21
10.7838952319
 31
0.0
  0
ARC
  5
34B
330
1F
100
AcDbEntity
  8
0
  6
SLD-Сплошная
 62
     7
370
    25
100
AcDbCircle
 10
263.5386426368
 20
23.8493969866
 30
0.0
 40
100.8291642103892
100
AcDbArc
 50
186.3662069002
 51
187.4453564399
  0
LINE
  5
34C
330
1F
100
AcDbEntity
  8
0
  6
SLD-Сплошная
 62
     7
370
    25
100
AcDbLine
 10
173.6932638257
 20
12.6691781791
 30
0.0
 11
163.3312423972
 21
12.6691781791
 31
0.0
  0
ARC
  5
34D
330
1F
100
AcDbEntity
  8
0
  6
SLD-Сплошная
 62
     7
370
    25
100
AcDbCircle
 10
288.1795734325
 20
25.1865433027
 30
0.0
 40
115.1685700050618
100
AcDbArc
 50
174.7866315678
 51
186.2396518063
  0
LINE
  5
34E
330
1F
100
AcDbEntity
  8
0
  6
SLD-Сплошная
 62
     7
370
    25
100
AcDbLine
 10
163.1254116697
 20
35.6513285416
 30
0.0
 11
173.4874299084
 21
35.6513285777
 31
0.0
  0
ARC
  5
34F
330
1F
100
AcDbEntity
  8
0
  6
SLD-Сплошная
 62
     7
370
    25
100
AcDbCircle
 10
268.1015208156
 20
25.9847568164
 30
0.0
 40
105.4202357251201
100
AcDbArc
 50
173.6912542525
 51
174.7388387892
  0
LINE
  5
350
330
1F
100
AcDbEntity
  8
0
  6
SLD-Сплошная
 62
     7
370
    25
100
AcDbLine
 10
173.681711036
 20
37.5689680113
 30
0.0
 11
163.3196896075
 21
37.5689680113
 31
0.0
  0
ARC
  5
351
330
1F
100
AcDbEntity
  8
0
  6
SLD-Сплошная
 62
     7
370
    25
100
AcDbCircle
 10
243.1255698472
 20
31.2420247494
 30
0.0
 40
69.73148311649456
100
AcDbArc
 50
158.7497479681
 51
174.7942253668
  0
LINE
  5
352
330
1F
100
AcDbEntity
  8
0
  6
SLD-Сплошная
 62
     7
370
    25
100
AcDbLine
 10
167.7733717732
 20
56.5156525514
 30
0.0
 11
178.1353900185
 21
56.5156525749
 31
0.0
  0
ARC
  5
353
330
1F
100
AcDbEntity
  8
0
  6
SLD-Сплошная
 62
     7
370
    25
100
AcDbCircle
 10
199.8875860417
 20
42.9311122638
 30
0.0
 40
34.86921984948103
100
AcDbArc
 50
154.8808369032
 51
157.0712933948
  0
LINE
  5
354
330
1F
100
AcDbEntity
  8
0
  6
SLD-Сплошная
 62
     7
370
    25
100
AcDbLine
 10
178.678078848
 20
57.7331754094
 30
0.0
 11
168.3160574195
 21
57.7331754094
 31
0.0
  0
LWPOLYLINE
  5
355
330
1F
100
AcDbEntity
  8
0
  6
SLD-Сплошная
 62
     7
370
    25
100
AcDbPolyline
 90
        9
 70
   128
 43
0.0
 10
185.9578274104
 20
65.3857947788
 10
184.9823954478
 20
65.1106290688
 10
184.0161189221
 20
64.6334636648
 10
183.0638849046
 20
63.9567118939
 10
182.130509445
 20
63.0837965178
 10
181.2207132131
 20
62.0191324214
 10
180.3390976238
 20
60.7681042844
 10
179.4901215644
 20
59.337039347
 10
178.678078848
 20
57.7331754094
  0
LINE
  5
356
330
1F
100
AcDbEntity
  8
0
  6
SLD-Сплошная
 62
     7
370
    25
100
AcDbLine
 10
185.9578274104
 20
65.3857947788
 30
0.0
 11
187.6109608372
 21
65.3857947788
 31
0.0
  0
ARC
  5
357
330
1F
100
AcDbEntity
  8
0
  6
SLD-Сплошная
 62
     7
370
    25
100
AcDbCircle
 10
188.4476964783
 20
60.6922869325
 30
0.0
 40
4.76750903899337
100
AcDbArc
 50
90.023383021
 51
100.1082178224
  0
ARC
  5
358
330
1F
100
AcDbEntity
  8
0
  6
SLD-Сплошная
 62
     7
370
    25
100
AcDbCircle
 10
225.4114085308
 20
45.1560342293
 30
0.0
 40
5.425571032324423
100
AcDbArc
 50
98.5683936325
 51
153.5144687035
  0
LINE
  5
359
330
1F
100
AcDbEntity
  8
0
  6
SLD-Сплошная
 62
     7
370
    25
100
AcDbLine
 10
229.3015164147
 20
50.5210489417
 30
0.0
 11
224.6030533108
 21
50.5210489417
 31
0.0
  0
LWPOLYLINE
  5
35A
330
1F
100
AcDbEntity
  8
0
  6
SLD-Сплошная
 62
     7
370
    25
100
AcDbPolyline
 90
       38
 70
   128
 43
0.0
 10
229.3015164147
 20
50.5210489417
 10
228.56913172
 20
50.4300855274
 10
227.8420238738
 20
50.157850678
 10
227.1254317048
 20
49.7063058518
 10
226.424518276
 20
49.0787044396
 10
225.7443336847
 20
48.279568324
 10
225.0897786765
 20
47.3146552991
 10
224.4655693352
 20
46.1909175851
 10
223.8762031035
 20
44.9164517383
 10
223.3259263784
 20
43.5004403141
 10
222.8187039165
 20
41.9530857073
 10
222.3581902672
 20
40.2855366434
 10
221.9477034419
 20
38.5098078516
 10
221.5902010076
 20
36.6386934984
 10
221.2882587775
 20
34.6856750057
 10
221.0440522523
 20
32.6648239165
 10
220.8593409456
 20
30.5907005091
 10
220.7354557067
 20
28.4782488903
 10
220.6732891314
 20
26.3426893224
 10
220.6732891314
 20
24.199408561
 10
220.7354557067
 20
22.0638489931
 10
220.8593409456
 20
19.9513973743
 10
221.0440522523
 20
17.877273967
 10
221.2882587775
 20
15.8564228778
 10
221.5902010076
 20
13.9034043851
 10
221.9477034419
 20
12.0322900319
 10
222.3581902672
 20
10.2565612401
 10
222.8187039165
 20
8.5890121761
 10
223.3259263784
 20
7.0416575694
 10
223.8762031035
 20
5.6256461452
 10
224.4655693352
 20
4.3511802983
 10
225.0897786765
 20
3.2274425844
 10
225.7443336847
 20
2.2625295594
 10
226.424518276
 20
1.4633934438
 10
227.1254317048
 20
0.8357920317
 10
227.8420238738
 20
0.3842472055
 10
228.56913172
 20
0.112012356
 10
229.3015164147
 20
0.0210489417
  0
LINE
  5
35B
330
1F
100
AcDbEntity
  8
0
  6
SLD-Сплошная
 62
     7
370
    25
100
AcDbLine
 10
229.3015164147
 20
0.0210489417
 30
0.0
 11
224.6030533108
 21
0.0210489417
 31
0.0
  0
ARC
  5
35C
330
1F
100
AcDbEntity
  8
0
  6
SLD-Сплошная
 62
     7
370
    25
100
AcDbCircle
 10
225.4114085308
 20
5.3860636542
 30
0.0
 40
5.425571032324406
100
AcDbArc
 50
206.4855312965
 51
261.4316063675
  0
ARC
  5
35D
330
1F
100
AcDbEntity
  8
0
  6
SLD-Сплошная
 62
     7
370
    25
100
AcDbCircle
 10
228.583448046
 20
5.1768073917
 30
0.0
 40
5.205522776445753
100
AcDbArc
 50
277.9288666323
 51
330.5956061339
  0
ARC
  5
35E
330
1F
100
AcDbEntity
  8
0
  6
SLD-Сплошная
 62
     7
370
    25
100
AcDbCircle
 10
228.583448046
 20
45.3652904918
 30
0.0
 40
5.205522776445792
100
AcDbArc
 50
29.4043938661
 51
82.0711333677
  0
ARC
  5
35F
330
1F
100
AcDbEntity
  8
0
  6
SLD-Сплошная
 62
     7
370
    25
100
AcDbCircle
 10
287.4367140599
 20
25.2710489417
 30
0.0
 40
65.88201161332788
100
AcDbArc
 50
177.2159522959
 51
182.7840477041
  0
ARC
  5
360
330
1F
100
AcDbEntity
  8
0
  6
SLD-Сплошная
 62
     7
370
    25
100
AcDbCircle
 10
268.1206519389
 20
23.0612922868
 30
0.0
 40
46.4306313249816
100
AcDbArc
 50
186.6899124433
 51
194.7342385625
  0
ARC
  5
361
330
1F
100
AcDbEntity
  8
0
  6
SLD-Сплошная
 62
     7
370
    25
100
AcDbCircle
 10
240.3854323152
 20
36.0421196146
 30
0.0
 40
17.36769672342886
100
AcDbArc
 50
146.7454277605
 51
161.6761276477
  0
LINE
  5
362
330
1F
100
AcDbEntity
  8
0
  6
SLD-Сплошная
 62
     7
370
    25
100
AcDbLine
 10
228.4907333482
 20
28.4404593145
 30
0.0
 11
223.5570439825
 21
28.4404593145
 31
0.0
  0
LINE
  5
363
330
1F
100
AcDbEntity
  8
0
  6
SLD-Сплошная
 62
     7
370
    25
100
AcDbLine
 10
223.5570439825
 20
28.4404593145
 30
0.0
 11
221.6320833944
 21
28.4632615941
 31
0.0
  0
LWPOLYLINE
  5
364
330
1F
100
AcDbEntity
  8
0
  6
SLD-Сплошная
 62
     7
370
    25
100
AcDbPolyline
 90
       12
 70
   128
 43
0.0
 10
191.431903797
 20
-2.9789510583
 10
190.9087987119
 20
-2.9375182221
 10
190.1237492351
 20
-2.718833092
 10
189.3474141525
 20
-2.3136907404
 10
188.5849650929
 20
-1.7247900611
 10
187.8414811822
 20
-0.9560540711
 10
187.1219152082
 20
-0.0126037773
 10
186.4310606269
 20
1.0992759379
 10
185.7735196309
 20
2.3721781835
 10
185.1536724912
 20
3.797623402
 10
184.5756483775
 20
5.3661158566
 10
184.1298538359
 20
6.7710489417
  0
LWPOLYLINE
  5
365
330
1F
100
AcDbEntity
  8
0
  6
SLD-Сплошная
 62
     7
370
    25
100
AcDbPolyline
 90
       12
 70
   128
 43
0.0
 10
184.1298538359
 20
43.7710489417
 10
184.6525390042
 20
45.399863769
 10
185.2333493366
 20
46.9414502553
 10
185.8550163611
 20
48.340200066
 10
186.5134424677
 20
49.5868935852
 10
187.2042877555
 20
50.6733134498
 10
187.9229986381
 20
51.5922987125
 10
188.6648378578
 20
52.3377920419
 10
189.4249157108
 20
52.9048796487
 10
190.1982222761
 20
53.2898236737
 10
190.9796604382
 20
53.4900868254
 10
191.431903797
 20
53.5210489417
  0
LINE
  5
366
330
1F
100
AcDbEntity
  8
0
  6
SLD-Сплошная
 62
     7
370
    25
100
AcDbLine
 10
173.6932638257
 20
12.6691781791
 30
0.0
 11
173.4715357003
 21
13.1716701224
 31
0.0
  0
LINE
  5
367
330
1F
100
AcDbEntity
  8
0
  6
SLD-Сплошная
 62
     7
370
    25
100
AcDbLine
 10
173.4715357003
 20
13.1716701224
 30
0.0
 11
173.4002435475
 21
13.3332495597
 31
0.0
  0
ARC
  5
368
330
1F
100
AcDbEntity
  8
0
  6
SLD-Сплошная
 62
     7
370
    25
100
AcDbCircle
 10
282.2620112018
 20
25.1856313646
 30
0.0
 40
109.5050839517122
100
AcDbArc
 50
174.8126343105
 51
186.2136331616
  0
LINE
  5
369
330
1F
100
AcDbEntity
  8
0
  6
SLD-Сплошная
 62
     7
370
    25
100
AcDbLine
 10
173.2054206716
 20
35.0863118055
 30
0.0
 11
173.4874299084
 21
35.6513285777
 31
0.0
  0
LINE
  5
36A
330
1F
100
AcDbEntity
  8
0
  6
SLD-Сплошная
 62
     7
370
    25
100
AcDbLine
 10
173.2054206716
 20
35.0863118055
 30
0.0
 11
163.5769537437
 21
35.0863118055
 31
0.0
  0
ARC
  5
36B
330
1F
100
AcDbEntity
  8
0
  6
SLD-Сплошная
 62
     7
370
    25
100
AcDbCircle
 10
214.1933875763
 20
76.0001734963
 30
0.0
 40
65.08431033960673
100
AcDbArc
 50
218.3122889334
 51
218.9490186197
  0
LWPOLYLINE
  5
36C
330
1F
100
AcDbEntity
  8
0
  6
SLD-Сплошная
 62
     7
370
    25
100
AcDbPolyline
 90
        3
 70
   128
 43
0.0
 10
223.5570439825
 20
28.4404593145
 10
223.3983212282
 20
27.7212578343
 10
223.3711565736
 20
27.5664027843
  0
LWPOLYLINE
  5
36D
330
1F
100
AcDbEntity
  8
0
  6
SLD-Сплошная
 62
     7
370
    25
100
AcDbPolyline
 90
        3
 70
   128
 43
0.0
 10
223.3711565736
 20
22.9756950992
 10
223.4046007843
 20
22.7867771052
 10
223.5651496116
 20
22.0710489417
  0
LINE
  5
36E
330
1F
100
AcDbEntity
  8
0
  6
SLD-Сплошная
 62
     7
370
    25
100
AcDbLine
 10
227.0187336542
 20
25.7710489417
 30
0.0
 11
227.0187336542
 21
24.7710489417
 31
0.0
  0
LINE
  5
36F
330
1F
100
AcDbEntity
  8
0
  6
SLD-Сплошная
 62
     7
370
    25
100
AcDbLine
 10
225.6561793541
 20
25.7710489417
 30
0.0
 11
227.0187336542
 21
25.7710489417
 31
0.0
  0
LINE
  5
370
330
1F
100
AcDbEntity
  8
0
  6
SLD-Сплошная
 62
     7
370
    25
100
AcDbLine
 10
225.6561793541
 20
28.2290888333
 30
0.0
 11
225.6561793541
 21
25.7710489417
 31
0.0
  0
ARC
  5
371
330
1F
100
AcDbEntity
  8
0
  6
SLD-Сплошная
 62
     7
370
    25
100
AcDbCircle
 10
225.0044430115
 20
25.2710489417
 30
0.0
 40
3.028986672189051
100
AcDbArc
 50
282.4252933849
 51
77.5747066151
  0
LINE
  5
372
330
1F
100
AcDbEntity
  8
0
  6
SLD-Сплошная
 62
     7
370
    25
100
AcDbLine
 10
225.6561793541
 20
24.7710489417
 30
0.0
 11
225.6561793541
 21
22.3130090502
 31
0.0
  0
LINE
  5
373
330
1F
100
AcDbEntity
  8
0
  6
SLD-Сплошная
 62
     7
370
    25
100
AcDbLine
 10
227.0187336542
 20
24.7710489417
 30
0.0
 11
225.6561793541
 21
24.7710489417
 31
0.0
  0
ARC
  5
374
330
1F
100
AcDbEntity
  8
0
  6
SLD-Сплошная
 62
     7
370
    25
100
AcDbCircle
 10
226.0155757887
 20
25.0464449352
 30
0.0
 40
2.775515979637502
100
AcDbArc
 50
270.5327617076
 51
330.5965438321
  0
ARC
  5
375
330
1F
100
AcDbEntity
  8
0
  6
SLD-Сплошная
 62
     7
370
    25
100
AcDbCircle
 10
226.0094332525
 20
25.4852518474
 30
0.0
 40
2.785980305574392
100
AcDbArc
 50
29.5277877093
 51
89.342906751
  0
ARC
  5
376
330
1F
100
AcDbEntity
  8
0
  6
SLD-Сплошная
 62
     7
370
    25
100
AcDbCircle
 10
225.3682230759
 20
25.2710489417
 30
0.0
 40
3.028986672189203
100
AcDbArc
 50
102.4252933849
 51
257.5747066151
  0
LINE
  5
377
330
1F
100
AcDbEntity
  8
0
  6
SLD-Сплошная
 62
     7
370
    25
100
AcDbLine
 10
224.7164867333
 20
22.3130090502
 30
0.0
 11
225.0585068766
 21
22.3130090502
 31
0.0
  0
ARC
  5
378
330
1F
100
AcDbEntity
  8
0
  6
SLD-Сплошная
 62
     7
370
    25
100
AcDbCircle
 10
225.528353187
 20
24.9229795575
 30
0.0
 40
2.651924132522617
100
AcDbArc
 50
259.7949286692
 51
280.2050713309
  0
LINE
  5
379
330
1F
100
AcDbEntity
  8
0
  6
SLD-Сплошная
 62
     7
370
    25
100
AcDbLine
 10
225.9981994974
 20
22.3130090502
 30
0.0
 11
225.6561793541
 21
22.3130090502
 31
0.0
  0
LINE
  5
37A
330
1F
100
AcDbEntity
  8
0
  6
SLD-Сплошная
 62
     7
370
    25
100
AcDbLine
 10
225.6561793541
 20
28.2290888333
 30
0.0
 11
225.9981994974
 21
28.2290888333
 31
0.0
  0
ARC
  5
37B
330
1F
100
AcDbEntity
  8
0
  6
SLD-Сплошная
 62
     7
370
    25
100
AcDbCircle
 10
225.528353187
 20
25.6191183259
 30
0.0
 40
2.65192413252354
100
AcDbArc
 50
79.7949286692
 51
100.2050713309
  0
LINE
  5
37C
330
1F
100
AcDbEntity
  8
0
  6
SLD-Сплошная
 62
     7
370
    25
100
AcDbLine
 10
225.0585068766
 20
28.2290888333
 30
0.0
 11
224.7164867333
 21
28.2290888333
 31
0.0
  0
ARC
  5
37D
330
1F
100
AcDbEntity
  8
0
  6
SLD-Сплошная
 62
     7
370
    25
100
AcDbCircle
 10
244.6223331415
 20
30.1211877634
 30
0.0
 40
71.54689345599652
100
AcDbArc
 50
162.6717810381
 51
174.0248861953
  0
ARC
  5
37E
330
1F
100
AcDbEntity
  8
0
  6
SLD-Сплошная
 62
     7
370
    25
100
AcDbCircle
 10
225.2717671556
 20
-27.9430076461
 30
0.0
 40
74.06738988820881
100
AcDbArc
 50
146.1321170617
 51
146.7485778771
  0
LINE
  5
37F
330
1F
100
AcDbEntity
  8
0
  6
SLD-Сплошная
 62
     7
370
    25
100
AcDbLine
 10
173.4002435475
 20
13.3332495597
 30
0.0
 11
163.7717766196
 21
13.3332495597
 31
0.0
  0
ARC
  5
380
330
1F
100
AcDbEntity
  8
0
  6
SLD-Сплошная
 62
     7
370
    25
100
AcDbCircle
 10
272.6335442901
 20
25.1856313648
 30
0.0
 40
109.505083967769
100
AcDbArc
 50
174.8126343113
 51
186.2136331608
  0
ARC
  5
381
330
1F
100
AcDbEntity
  8
0
  6
SLD-Сплошная
 62
     7
370
    25
100
AcDbCircle
 10
243.5414116647
 20
19.8784146552
 30
0.0
 40
70.41301806689445
100
AcDbArc
 50
187.421033339
 51
197.3241421038
  0
LWPOLYLINE
  5
382
330
1F
100
AcDbEntity
  8
0
  6
SLD-Сплошная
 62
     7
370
    25
100
AcDbPolyline
 90
        3
 70
   128
 43
0.0
 10
227.2605410734
 20
11.2523151896
 10
227.0950447529
 20
11.9643525294
 10
227.0478731143
 20
12.2256950992
  0
LWPOLYLINE
  5
383
330
1F
100
AcDbEntity
  8
0
  6
SLD-Сплошная
 62
     7
370
    25
100
AcDbPolyline
 90
        3
 70
   128
 43
0.0
 10
227.0478731143
 20
16.8164027843
 10
227.0665899432
 20
16.9244506357
 10
227.2238259161
 20
17.6523151896
  0
LINE
  5
384
330
1F
100
AcDbEntity
  8
0
  6
SLD-Сплошная
 62
     7
370
    25
100
AcDbLine
 10
223.3539324332
 20
24.7710489417
 30
0.0
 11
223.3539324332
 21
25.7710489417
 31
0.0
  0
LINE
  5
385
330
1F
100
AcDbEntity
  8
0
  6
SLD-Сплошная
 62
     7
370
    25
100
AcDbLine
 10
224.7164867333
 20
24.7710489417
 30
0.0
 11
223.3539324332
 21
24.7710489417
 31
0.0
  0
LINE
  5
386
330
1F
100
AcDbEntity
  8
0
  6
SLD-Сплошная
 62
     7
370
    25
100
AcDbLine
 10
224.7164867333
 20
22.3130090502
 30
0.0
 11
224.7164867333
 21
24.7710489417
 31
0.0
  0
LINE
  5
387
330
1F
100
AcDbEntity
  8
0
  6
SLD-Сплошная
 62
     7
370
    25
100
AcDbLine
 10
224.7164867333
 20
25.7710489417
 30
0.0
 11
224.7164867333
 21
28.2290888333
 31
0.0
  0
LINE
  5
388
330
1F
100
AcDbEntity
  8
0
  6
SLD-Сплошная
 62
     7
370
    25
100
AcDbLine
 10
223.3539324332
 20
25.7710489417
 30
0.0
 11
224.7164867333
 21
25.7710489417
 31
0.0
  0
LINE
  5
389
330
1F
100
AcDbEntity
  8
0
  6
SLD-Сплошная
 62
     7
370
    25
100
AcDbLine
 10
225.0585068766
 20
24.7710489417
 30
0.0
 11
224.7164867333
 21
24.7710489417
 31
0.0
  0
LINE
  5
38A
330
1F
100
AcDbEntity
  8
0
  6
SLD-Сплошная
 62
     7
370
    25
100
AcDbLine
 10
225.0585068766
 20
24.7710489417
 30
0.0
 11
225.0585068766
 21
22.3130090502
 31
0.0
  0
LINE
  5
38B
330
1F
100
AcDbEntity
  8
0
  6
SLD-Сплошная
 62
     7
370
    25
100
AcDbLine
 10
225.0585068766
 20
28.2290888333
 30
0.0
 11
225.0585068766
 21
25.7710489417
 31
0.0
  0
LINE
  5
38C
330
1F
100
AcDbEntity
  8
0
  6
SLD-Сплошная
 62
     7
370
    25
100
AcDbLine
 10
225.0585068766
 20
25.7710489417
 30
0.0
 11
224.7164867333
 21
25.7710489417
 31
0.0
  0
LINE
  5
38D
330
1F
100
AcDbEntity
  8
0
  6
SLD-Сплошная
 62
     7
370
    25
100
AcDbLine
 10
223.6959525765
 20
25.7710489417
 30
0.0
 11
223.6959525765
 21
24.7710489417
 31
0.0
  0
ARC
  5
38E
330
1F
100
AcDbEntity
  8
0
  6
SLD-Сплошная
 62
     7
370
    25
100
AcDbCircle
 10
229.3058625862
 20
31.1018021271
 30
0.0
 40
65.78882902382044
100
AcDbArc
 50
158.7582334584
 51
174.3586061794
  0
LINE
  5
38F
330
1F
100
AcDbEntity
  8
0
  6
SLD-Сплошная
 62
     7
370
    25
100
AcDbLine
 10
177.5066006091
 20
54.9373648876
 30
0.0
 11
167.9867303988
 21
54.9373648876
 31
0.0
  0
LINE
  5
390
330
1F
100
AcDbEntity
  8
0
  6
SLD-Сплошная
 62
     7
370
    25
100
AcDbLine
 10
168.5308427116
 20
-5.8158138831
 30
0.0
 11
177.9860339159
 21
-5.8158138831
 31
0.0
  0
ARC
  5
391
330
1F
100
AcDbEntity
  8
0
  6
SLD-Сплошная
 62
     7
370
    25
100
AcDbCircle
 10
223.3297640917
 20
17.7391615684
 30
0.0
 40
59.64695007240614
100
AcDbArc
 50
186.6963370254
 51
203.2601503236
  0
LINE
  5
392
330
1F
100
AcDbEntity
  8
0
  6
SLD-Сплошная
 62
     7
370
    25
100
AcDbLine
 10
228.1836971037
 20
27.2210489417
 30
0.0
 11
228.443279003
 21
27.2210489417
 31
0.0
  0
LINE
  5
393
330
1F
100
AcDbEntity
  8
0
  6
SLD-Сплошная
 62
     7
370
    25
100
AcDbLine
 10
228.443279003
 20
23.3210489417
 30
0.0
 11
228.1836971037
 21
23.3210489417
 31
0.0
  0
LWPOLYLINE
  5
394
330
1F
100
AcDbEntity
  8
0
  6
SLD-Сплошная
 62
     7
370
    25
100
AcDbPolyline
 90
       11
 70
   128
 43
0.0
 10
231.4396690218
 20
23.2714779587
 10
231.6368815175
 20
23.3689359091
 10
231.8275702366
 20
23.653014953
 10
231.9789016608
 20
24.0954784372
 10
232.0760624161
 20
24.653014953
 10
232.1095417307
 20
25.2710489417
 10
232.0760624161
 20
25.8890829305
 10
231.9789016608
 20
26.4466194463
 10
231.8275702366
 20
26.8890829305
 10
231.6368815175
 20
27.1731619743
 10
231.4396690218
 20
27.2706199248
  0
ARC
  5
395
330
1F
100
AcDbEntity
  8
0
  6
SLD-Сплошная
 62
     7
370
    25
100
AcDbCircle
 10
222.8072337478
 20
25.2710489417
 30
0.0
 40
9.653679778967566
100
AcDbArc
 50
346.5220139964
 51
13.4779860036
  0
LWPOLYLINE
  5
396
330
1F
100
AcDbEntity
  8
0
  6
SLD-Сплошная
 62
     7
370
    25
100
AcDbPolyline
 90
       13
 70
   128
 43
0.0
 10
220.5552674016
 20
-0.3803999695
 10
221.2418287629
 20
-1.2144471469
 10
221.9788567737
 20
-1.9170575683
 10
222.7327775203
 20
-2.4446500386
 10
223.49873779
 20
-2.7938282878
 10
224.2718068682
 20
-2.9623445512
 10
225.0470082784
 20
-2.9491140394
 10
225.8193518182
 20
-2.7542219211
 10
226.5838656816
 20
-2.3789227752
 10
227.3356284651
 20
-1.825632514
 10
228.0698008471
 20
-1.0979128321
 10
228.7816567413
 20
-0.200448278
 10
228.9360584388
 20
0.0210489417
  0
LWPOLYLINE
  5
397
330
1F
100
AcDbEntity
  8
0
  6
SLD-Сплошная
 62
     7
370
    25
100
AcDbPolyline
 90
       13
 70
   128
 43
0.0
 10
228.9360584388
 20
50.5210489417
 10
228.7816567413
 20
50.7425461615
 10
228.0698008471
 20
51.6400107155
 10
227.3356284651
 20
52.3677303975
 10
226.5838656816
 20
52.9210206586
 10
225.8193518182
 20
53.2963198046
 10
225.0470082784
 20
53.4912119228
 10
224.2718068682
 20
53.5044424346
 10
223.49873779
 20
53.3359261712
 10
222.7327775203
 20
52.9867479221
 10
221.9788567737
 20
52.4591554518
 10
221.2418287629
 20
51.7565450304
 10
220.5552674016
 20
50.922497853
  0
ELLIPSE
  5
398
330
1F
100
AcDbEntity
  8
0
  6
SLD-Сплошная
 62
     7
370
    25
100
AcDbEllipse
 10
187.7502822835
 20
25.2710489417
 30
0.0
 11
-0.0359620381304353
 21
33.89999810234928
 31
0.0
210
0.0
220
0.0
230
0.9999999999999998
 40
0.3154123429
 41
5.779859739540215
 42
5.834205677470307
  0
SPLINE
  5
399
330
1F
100
AcDbEntity
  8
0
  6
SLD-Сплошная
 62
     7
370
    25
100
AcDbSpline
210
0.0
220
0.0
230
1.0
 70
     8
 71
     3
 72
    12
 73
     8
 74
     0
 42
0.00000001
 43
0.00000001
 40
0.0
 40
0.0
 40
0.0
 40
0.0
 40
0.2116918604487432
 40
0.4293628844816216
 40
0.6514932743402823
 40
0.8763564456096891
 40
1.0
 40
1.0
 40
1.0
 40
1.0
 10
187.7216235623698
 20
55.27104894173605
 30
0.0
 10
187.3366369876329
 20
55.22761880891213
 30
0.0
 10
186.5557900251408
 20
55.13953187414206
 30
0.0
 10
185.3883659511037
 20
54.42524785709478
 30
0.0
 10
184.2394450240358
 20
53.23859095129002
 30
0.0
 10
183.2892958703705
 20
51.88130473747124
 30
0.0
 10
182.7635138273534
 20
50.76193355329311
 30
0.0
 10
182.5769763638075
 20
50.36480195810832
 30
0.0
  0
LINE
  5
39A
330
1F
100
AcDbEntity
  8
0
  6
SLD-Сплошная
 62
     7
370
    25
100
AcDbLine
 10
186.2125885882
 20
55.2622991359
 30
0.0
 11
186.1896566317
 21
57.7509369862
 31
0.0
  0
LINE
  5
39B
330
1F
100
AcDbEntity
  8
0
  6
SLD-Сплошная
 62
     7
370
    25
100
AcDbLine
 10
227.2543890935
 20
42.1178045244
 30
0.0
 11
225.5186028552
 21
45.0368743734
 31
0.0
  0
LWPOLYLINE
  5
39C
330
1F
100
AcDbEntity
  8
0
  6
SLD-Сплошная
 62
     7
370
    25
100
AcDbPolyline
 90
       12
 70
   128
 43
0.0
 10
232.4845560057
 20
27.5210489417
 10
232.701361977
 20
27.4299081324
 10
232.9006036179
 20
27.1638693906
 10
233.0661395556
 20
26.7444855931
 10
233.1845590529
 20
26.205732721
 10
233.2462684664
 20
25.5912573279
 10
233.2462684664
 20
24.9508405556
 10
233.1845590529
 20
24.3363651625
 10
233.0661395556
 20
23.7976122904
 10
232.9006036179
 20
23.3782284929
 10
232.701361977
 20
23.1121897511
 10
232.4845560057
 20
23.0210489417
  0
SPLINE
  5
39D
330
1F
100
AcDbEntity
  8
0
  6
SLD-Сплошная
 62
     7
370
    25
100
AcDbSpline
210
0.0
220
0.0
230
1.0
 70
     8
 71
     3
 72
    11
 73
     7
 74
     0
 42
0.00000001
 43
0.00000001
 40
0.0
 40
0.0
 40
0.0
 40
0.0
 40
0.2473676057752445
 40
0.537246462732144
 40
0.8380676728728726
 40
1.0
 40
1.0
 40
1.0
 40
1.0
 10
183.4955652003714
 20
-2.413542857632522
 30
0.0
 10
183.8301727775946
 20
-2.76975967866503
 30
0.0
 10
184.5568917701771
 20
-3.543410805964563
 30
0.0
 10
185.7449298968632
 20
-4.287230180902993
 30
0.0
 10
186.8306826006391
 20
-4.712112589349345
 30
0.0
 10
187.5030500198932
 20
-4.683179765793924
 30
0.0
 10
187.7383329774846
 20
-4.673055241459982
 30
0.0
  0
LWPOLYLINE
  5
39E
330
1F
100
AcDbEntity
  8
0
  6
SLD-Сплошная
 62
     7
370
    25
100
AcDbPolyline
 90
       17
 70
   128
 43
0.0
 10
194.8850794789
 20
-2.9789510583
 10
194.2164603659
 20
-3.6030917057
 10
193.4283775554
 20
-4.1555706941
 10
192.6278399194
 20
-4.5244743113
 10
191.8198415415
 20
-4.7075011845
 10
191.0094230481
 20
-4.7035095169
 10
190.2016401636
 20
-4.5125242099
 10
189.4015321703
 20
-4.1357367088
 10
188.6140904714
 20
-3.5754975689
 10
187.8442274523
 20
-2.8353017929
 10
187.0967458357
 20
-1.9197670267
 10
186.3763087196
 20
-0.8346047533
 10
185.6874104876
 20
0.4134153382
 10
185.0343487704
 20
1.8165075846
 10
184.421197636
 20
3.3659189185
 10
183.8517821737
 20
5.0519834742
 10
183.3545059534
 20
6.7710489417
  0
LWPOLYLINE
  5
39F
330
1F
100
AcDbEntity
  8
0
  6
SLD-Сплошная
 62
     7
370
    25
100
AcDbPolyline
 90
       13
 70
   128
 43
0.0
 10
191.431903797
 20
55.2710489417
 10
190.6032853132
 20
55.1730628489
 10
189.7800797018
 20
54.8797446553
 10
188.9676644764
 20
54.3930104346
 10
188.1713466632
 20
53.7160397324
 10
187.3963281336
 20
52.8532547963
 10
186.6476716235
 20
51.8102916879
 10
185.9302676612
 20
50.5939634659
 10
185.2488026208
 20
49.2122156804
 10
184.6077281089
 20
47.6740744691
 10
184.0112318844
 20
45.9895875952
 10
183.4632105031
 20
44.1697588111
 10
183.3545059534
 20
43.7710489417
  0
ARC
  5
3A0
330
1F
100
AcDbEntity
  8
0
  6
SLD-Сплошная
 62
     7
370
    25
100
AcDbCircle
 10
191.0639627642
 20
50.2630339864
 30
0.0
 40
5.021513158091232
100
AcDbArc
 50
40.4520459575
 51
85.7980040114
  0
LINE
  5
3A1
330
1F
100
AcDbEntity
  8
0
  6
SLD-Сплошная
 62
     7
370
    25
100
AcDbLine
 10
191.431903797
 20
55.2710489417
 30
0.0
 11
189.6456929309
 21
55.2710489417
 31
0.0
  0
LINE
  5
3A2
330
1F
100
AcDbEntity
  8
0
  6
SLD-Сплошная
 62
     7
370
    25
100
AcDbLine
 10
229.3328958949
 20
11.5630090502
 30
0.0
 11
229.9459420654
 21
11.751211936
 31
0.0
  0
LINE
  5
3A3
330
1F
100
AcDbEntity
  8
0
  6
SLD-Сплошная
 62
     7
370
    25
100
AcDbLine
 10
229.3328958949
 20
14.0210489417
 30
0.0
 11
229.3328958949
 21
11.5630090502
 31
0.0
  0
LINE
  5
3A4
330
1F
100
AcDbEntity
  8
0
  6
SLD-Сплошная
 62
     7
370
    25
100
AcDbLine
 10
229.4376401758
 20
14.0210489417
 30
0.0
 11
229.3328958949
 21
14.0210489417
 31
0.0
  0
LWPOLYLINE
  5
3A5
330
1F
100
AcDbEntity
  8
0
  6
SLD-Сплошная
 62
     7
370
    25
100
AcDbPolyline
 90
        3
 70
   128
 43
0.0
 10
230.0013274288
 20
11.5362281112
 10
229.8951113063
 20
11.5269687565
 10
229.7180999428
 20
11.5210489417
  0
ARC
  5
3A6
330
1F
100
AcDbEntity
  8
0
  6
SLD-Сплошная
 62
     7
370
    25
100
AcDbCircle
 10
229.0449396167
 20
14.5210489417
 30
0.0
 40
3.028986672189207
100
AcDbArc
 50
102.4252933849
 51
257.5747066151
  0
LINE
  5
3A7
330
1F
100
AcDbEntity
  8
0
  6
SLD-Сплошная
 62
     7
370
    25
100
AcDbLine
 10
228.3932032741
 20
11.5630090502
 30
0.0
 11
228.7352234174
 21
11.5630090502
 31
0.0
  0
ARC
  5
3A8
330
1F
100
AcDbEntity
  8
0
  6
SLD-Сплошная
 62
     7
370
    25
100
AcDbCircle
 10
229.2050697278
 20
14.1729795575
 30
0.0
 40
2.651924132523629
100
AcDbArc
 50
259.7949286692
 51
280.2050713309
  0
LINE
  5
3A9
330
1F
100
AcDbEntity
  8
0
  6
SLD-Сплошная
 62
     7
370
    25
100
AcDbLine
 10
229.6749160382
 20
11.5630090502
 30
0.0
 11
229.3328958949
 21
11.5630090502
 31
0.0
  0
LWPOLYLINE
  5
3AA
330
1F
100
AcDbEntity
  8
0
  6
SLD-Сплошная
 62
     7
370
    25
100
AcDbPolyline
 90
        3
 70
   128
 43
0.0
 10
228.8845332775
 20
17.5015934377
 10
228.8519627508
 20
17.4974222319
 10
228.7352234174
 20
17.4790888333
  0
LINE
  5
3AB
330
1F
100
AcDbEntity
  8
0
  6
SLD-Сплошная
 62
     7
370
    25
100
AcDbLine
 10
228.7352234174
 20
17.4790888333
 30
0.0
 11
228.3932032741
 21
17.4790888333
 31
0.0
  0
ARC
  5
3AC
330
1F
100
AcDbEntity
  8
0
  6
SLD-Сплошная
 62
     7
370
    25
100
AcDbCircle
 10
229.8487210946
 20
39.7011463608
 30
0.0
 40
3.545842882111844
100
AcDbArc
 50
98.5277864602
 51
149.4715366754
  0
LWPOLYLINE
  5
3AD
330
1F
100
AcDbEntity
  8
0
  6
SLD-Сплошная
 62
     7
370
    25
100
AcDbPolyline
 90
        3
 70
   128
 43
0.0
 10
231.262771265
 20
42.8179968224
 10
230.9110025084
 20
43.0155587029
 10
230.2626041067
 20
43.2077866332
  0
ARC
  5
3AE
330
1F
100
AcDbEntity
  8
0
  6
SLD-Сплошная
 62
     7
370
    25
100
AcDbCircle
 10
230.0974168794
 20
39.5722370646
 30
0.0
 40
3.171821075168554
100
AcDbArc
 50
88.6730997633
 51
98.6732292132
  0
LINE
  5
3AF
330
1F
100
AcDbEntity
  8
0
  6
SLD-Сплошная
 62
     7
370
    25
100
AcDbLine
 10
229.6191096187
 20
42.7077866332
 30
0.0
 11
229.322911486
 21
43.2077866332
 31
0.0
  0
LINE
  5
3B0
330
1F
100
AcDbEntity
  8
0
  6
SLD-Сплошная
 62
     7
370
    25
100
AcDbLine
 10
230.2626041067
 20
43.2077866332
 30
0.0
 11
229.9258324687
 21
41.5023151896
 31
0.0
  0
LINE
  5
3B1
330
1F
100
AcDbEntity
  8
0
  6
SLD-Сплошная
 62
     7
370
    25
100
AcDbLine
 10
228.9861398479
 20
41.5023151896
 30
0.0
 11
229.322911486
 21
43.2077866332
 31
0.0
  0
LINE
  5
3B2
330
1F
100
AcDbEntity
  8
0
  6
SLD-Сплошная
 62
     7
370
    25
100
AcDbLine
 10
227.0306489739
 20
14.0210489417
 30
0.0
 11
227.0306489739
 21
15.0210489417
 31
0.0
  0
LINE
  5
3B3
330
1F
100
AcDbEntity
  8
0
  6
SLD-Сплошная
 62
     7
370
    25
100
AcDbLine
 10
228.3932032741
 20
14.0210489417
 30
0.0
 11
227.0306489739
 21
14.0210489417
 31
0.0
  0
LINE
  5
3B4
330
1F
100
AcDbEntity
  8
0
  6
SLD-Сплошная
 62
     7
370
    25
100
AcDbLine
 10
228.3932032741
 20
11.5630090502
 30
0.0
 11
228.3932032741
 21
14.0210489417
 31
0.0
  0
LINE
  5
3B5
330
1F
100
AcDbEntity
  8
0
  6
SLD-Сплошная
 62
     7
370
    25
100
AcDbLine
 10
228.3932032741
 20
15.0210489417
 30
0.0
 11
228.3932032741
 21
17.4790888333
 31
0.0
  0
LINE
  5
3B6
330
1F
100
AcDbEntity
  8
0
  6
SLD-Сплошная
 62
     7
370
    25
100
AcDbLine
 10
227.0306489739
 20
15.0210489417
 30
0.0
 11
228.3932032741
 21
15.0210489417
 31
0.0
  0
LINE
  5
3B7
330
1F
100
AcDbEntity
  8
0
  6
SLD-Сплошная
 62
     7
370
    25
100
AcDbLine
 10
228.7352234174
 20
14.0210489417
 30
0.0
 11
228.3932032741
 21
14.0210489417
 31
0.0
  0
LINE
  5
3B8
330
1F
100
AcDbEntity
  8
0
  6
SLD-Сплошная
 62
     7
370
    25
100
AcDbLine
 10
228.7352234174
 20
14.0210489417
 30
0.0
 11
228.7352234174
 21
11.5630090502
 31
0.0
  0
LINE
  5
3B9
330
1F
100
AcDbEntity
  8
0
  6
SLD-Сплошная
 62
     7
370
    25
100
AcDbLine
 10
228.7352234174
 20
17.4790888333
 30
0.0
 11
228.7352234174
 21
15.0210489417
 31
0.0
  0
LINE
  5
3BA
330
1F
100
AcDbEntity
  8
0
  6
SLD-Сплошная
 62
     7
370
    25
100
AcDbLine
 10
228.7352234174
 20
15.0210489417
 30
0.0
 11
228.3932032741
 21
15.0210489417
 31
0.0
  0
LINE
  5
3BB
330
1F
100
AcDbEntity
  8
0
  6
SLD-Сплошная
 62
     7
370
    25
100
AcDbLine
 10
227.3726691173
 20
15.0210489417
 30
0.0
 11
227.3726691173
 21
14.0210489417
 31
0.0
  0
LINE
  5
3BC
330
1F
100
AcDbEntity
  8
0
  6
SLD-Сплошная
 62
     7
370
    25
100
AcDbLine
 10
229.6191096187
 20
42.7077866332
 30
0.0
 11
229.3810706916
 21
41.5023151896
 31
0.0
  0
LINE
  5
3BD
330
1F
100
AcDbEntity
  8
0
  6
SLD-Сплошная
 62
     7
370
    25
100
AcDbLine
 10
235.6001585226
 20
39.8468680506
 30
0.0
 11
236.7228425544
 21
37.9588515225
 31
0.0
  0
LINE
  5
3BE
330
1F
100
AcDbEntity
  8
0
  6
SLD-Сплошная
 62
     7
370
    25
100
AcDbLine
 10
255.0509923256
 20
27.5210489417
 30
0.0
 11
255.0509923256
 21
23.0210489417
 31
0.0
  0
LINE
  5
3BF
330
1F
100
AcDbEntity
  8
0
  6
SLD-Сплошная
 62
     7
370
    25
100
AcDbLine
 10
255.0509923256
 20
23.0210489417
 30
0.0
 11
257.1276201244
 21
23.0211531383
 31
0.0
  0
LWPOLYLINE
  5
3C0
330
1F
100
AcDbEntity
  8
0
  6
SLD-Сплошная
 62
     7
370
    25
100
AcDbPolyline
 90
       12
 70
   128
 43
0.0
 10
257.1276201244
 20
23.0211531383
 10
257.3434718286
 20
23.1178182951
 10
257.5413464237
 20
23.3878654816
 10
257.7053106892
 20
23.8095500098
 10
257.8221619255
 20
24.3489170778
 10
257.8824910596
 20
24.962535873
 10
257.8814402803
 20
25.6009966989
 10
257.8190941983
 20
26.2128895342
 10
257.7004730331
 20
26.7489436598
 10
257.5351283755
 20
27.1659950271
 10
257.3363740767
 20
27.430461905
 10
257.1202141928
 20
27.5210489417
  0
LINE
  5
3C1
330
1F
100
AcDbEntity
  8
0
  6
SLD-Сплошная
 62
     7
370
    25
100
AcDbLine
 10
257.1202141928
 20
27.5210489417
 30
0.0
 11
255.0509923256
 21
27.5210489417
 31
0.0
  0
LINE
  5
3C2
330
1F
100
AcDbEntity
  8
0
  6
SLD-Сплошная
 62
     7
370
    25
100
AcDbLine
 10
253.03307348
 20
30.3710489417
 30
0.0
 11
253.03307348
 21
20.1710489417
 31
0.0
  0
LINE
  5
3C3
330
1F
100
AcDbEntity
  8
0
  6
SLD-Сплошная
 62
     7
370
    25
100
AcDbLine
 10
258.5053957732
 20
30.3710489417
 30
0.0
 11
253.03307348
 21
30.3710489417
 31
0.0
  0
ARC
  5
3C4
330
1F
100
AcDbEntity
  8
0
  6
SLD-Сплошная
 62
     7
370
    25
100
AcDbCircle
 10
220.8695074283
 20
25.2710489417
 30
0.0
 40
37.97986429035355
100
AcDbArc
 50
352.2829149884
 51
7.7170850116
  0
LINE
  5
3C5
330
1F
100
AcDbEntity
  8
0
  6
SLD-Сплошная
 62
     7
370
    25
100
AcDbLine
 10
253.03307348
 20
20.1710489417
 30
0.0
 11
258.5053957732
 21
20.1710489417
 31
0.0
  0
LINE
  5
3C6
330
1F
100
AcDbEntity
  8
0
  6
SLD-Сплошная
 62
     7
370
    25
100
AcDbLine
 10
251.1536882384
 20
28.3710489417
 30
0.0
 11
251.1536882384
 21
22.1710489417
 31
0.0
  0
LINE
  5
3C7
330
1F
100
AcDbEntity
  8
0
  6
SLD-Сплошная
 62
     7
370
    25
100
AcDbLine
 10
238.0919608095
 20
28.3710489417
 30
0.0
 11
251.1536882384
 21
28.3710489417
 31
0.0
  0
LINE
  5
3C8
330
1F
100
AcDbEntity
  8
0
  6
SLD-Сплошная
 62
     7
370
    25
100
AcDbLine
 10
253.03307348
 20
30.3710489417
 30
0.0
 11
238.0919608095
 21
30.3710489417
 31
0.0
  0
LINE
  5
3C9
330
1F
100
AcDbEntity
  8
0
  6
SLD-Сплошная
 62
     7
370
    25
100
AcDbLine
 10
253.03307348
 20
20.1710489417
 30
0.0
 11
238.0919608095
 21
20.1710489417
 31
0.0
  0
LINE
  5
3CA
330
1F
100
AcDbEntity
  8
0
  6
SLD-Сплошная
 62
     7
370
    25
100
AcDbLine
 10
238.0919608095
 20
22.1710489417
 30
0.0
 11
251.1536882384
 21
22.1710489417
 31
0.0
  0
ARC
  5
3CB
330
1F
100
AcDbEntity
  8
0
  6
SLD-Сплошная
 62
     7
370
    25
100
AcDbCircle
 10
414.4001780518
 20
89.0519896742
 30
0.0
 40
248.7637329045023
100
AcDbArc
 50
187.515368546
 51
187.8821901691
  0
ARC
  5
3CC
330
1F
100
AcDbEntity
  8
0
  6
SLD-Сплошная
 62
     7
370
    25
100
AcDbCircle
 10
226.6397632648
 20
36.0240692243
 30
0.0
 40
10.33502530745428
100
AcDbArc
 50
357.2307521664
 51
9.5389248714
  0
LWPOLYLINE
  5
3CD
330
1F
100
AcDbEntity
  8
0
  6
SLD-Сплошная
 62
     7
370
    25
100
AcDbPolyline
 90
        3
 70
   128
 43
0.0
 10
235.6466053622
 20
39.7687584504
 10
235.6125711574
 20
39.7639547046
 10
235.5825820569
 20
39.7575210588
  0
ARC
  5
3CE
330
1F
100
AcDbEntity
  8
0
  6
SLD-Сплошная
 62
     7
370
    25
100
AcDbCircle
 10
226.5709724971
 20
14.5208461072
 30
0.0
 40
10.40484283575772
100
AcDbArc
 50
352.1528405165
 51
7.9813402722
  0
ARC
  5
3CF
330
1F
100
AcDbEntity
  8
0
  6
SLD-Сплошная
 62
     7
370
    25
100
AcDbCircle
 10
432.9895124479
 20
-36.4129063732
 30
0.0
 40
266.2227827732701
100
AcDbArc
 50
173.4003890133
 51
173.7554681511
  0
SPLINE
  5
3D0
330
1F
100
AcDbEntity
  8
0
  6
SLD-Сплошная
 62
     7
370
    25
100
AcDbSpline
210
0.0
220
0.0
230
1.0
 70
     8
 71
     3
 72
     9
 73
     5
 74
     0
 42
0.00000001
 43
0.00000001
 40
0.0
 40
0.0
 40
0.0
 40
0.0
 40
0.2048980045870277
 40
1.0
 40
1.0
 40
1.0
 40
1.0
 10
194.3147860402289
 20
-3.501935549593261
 30
0.0
 10
194.22511164456
 20
-3.670714987266413
 30
0.0
 10
193.7874578184548
 20
-4.494439151946927
 30
0.0
 10
193.2977682809882
 20
-5.07597679634365
 30
0.0
 10
192.9084151526157
 20
-5.538358537811254
 30
0.0
  0
ELLIPSE
  5
3D1
330
1F
100
AcDbEntity
  8
0
  6
SLD-Сплошная
 62
     7
370
    25
100
AcDbEllipse
 10
187.752082501
 20
25.1710522425
 30
0.0
 11
0.0141368542020075
 21
30.46999955433146
 31
0.0
210
0.0
220
0.0
230
0.9999999999999998
 40
0.3686416804
 41
3.24724043056354
 42
3.299600308136294
  0
LINE
  5
3D2
330
1F
100
AcDbEntity
  8
0
  6
SLD-Сплошная
 62
     7
370
    25
100
AcDbLine
 10
186.5573613013
 20
-5.1296102373
 30
0.0
 11
186.5830733543
 21
-7.9085962233
 31
0.0
  0
LINE
  5
3D3
330
1F
100
AcDbEntity
  8
0
  6
SLD-Сплошная
 62
     7
370
    25
100
AcDbLine
 10
249.4072486683
 20
25.7710489417
 30
0.0
 11
249.4072486683
 21
24.7710489417
 31
0.0
  0
LINE
  5
3D4
330
1F
100
AcDbEntity
  8
0
  6
SLD-Сплошная
 62
     7
370
    25
100
AcDbLine
 10
248.0446943682
 20
25.7710489417
 30
0.0
 11
249.4072486683
 21
25.7710489417
 31
0.0
  0
LINE
  5
3D5
330
1F
100
AcDbEntity
  8
0
  6
SLD-Сплошная
 62
     7
370
    25
100
AcDbLine
 10
248.0446943682
 20
28.2290888333
 30
0.0
 11
248.0446943682
 21
25.7710489417
 31
0.0
  0
ARC
  5
3D6
330
1F
100
AcDbEntity
  8
0
  6
SLD-Сплошная
 62
     7
370
    25
100
AcDbCircle
 10
247.3929580256
 20
25.2710489417
 30
0.0
 40
3.028986672189073
100
AcDbArc
 50
282.4252933849
 51
77.5747066151
  0
LINE
  5
3D7
330
1F
100
AcDbEntity
  8
0
  6
SLD-Сплошная
 62
     7
370
    25
100
AcDbLine
 10
248.0446943682
 20
24.7710489417
 30
0.0
 11
248.0446943682
 21
22.3130090502
 31
0.0
  0
LINE
  5
3D8
330
1F
100
AcDbEntity
  8
0
  6
SLD-Сплошная
 62
     7
370
    25
100
AcDbLine
 10
249.4072486683
 20
24.7710489417
 30
0.0
 11
248.0446943682
 21
24.7710489417
 31
0.0
  0
ARC
  5
3D9
330
1F
100
AcDbEntity
  8
0
  6
SLD-Сплошная
 62
     7
370
    25
100
AcDbCircle
 10
248.3755065759
 20
25.116884442
 30
0.0
 40
2.846355242517745
100
AcDbArc
 50
271.0949485637
 51
347.4347312051
  0
ARC
  5
3DA
330
1F
100
AcDbEntity
  8
0
  6
SLD-Сплошная
 62
     7
370
    25
100
AcDbCircle
 10
248.3755065759
 20
25.4252134415
 30
0.0
 40
2.846355242517717
100
AcDbArc
 50
12.5652687949
 51
88.9050514363
  0
ARC
  5
3DB
330
1F
100
AcDbEntity
  8
0
  6
SLD-Сплошная
 62
     7
370
    25
100
AcDbCircle
 10
247.75673809
 20
25.2710489417
 30
0.0
 40
3.028986672189185
100
AcDbArc
 50
102.4252933849
 51
257.5747066151
  0
LINE
  5
3DC
330
1F
100
AcDbEntity
  8
0
  6
SLD-Сплошная
 62
     7
370
    25
100
AcDbLine
 10
247.1050017474
 20
22.3130090502
 30
0.0
 11
247.4470218907
 21
22.3130090502
 31
0.0
  0
ARC
  5
3DD
330
1F
100
AcDbEntity
  8
0
  6
SLD-Сплошная
 62
     7
370
    25
100
AcDbCircle
 10
247.9168682011
 20
24.9229795575
 30
0.0
 40
2.65192413252309
100
AcDbArc
 50
259.7949286692
 51
280.2050713309
  0
LINE
  5
3DE
330
1F
100
AcDbEntity
  8
0
  6
SLD-Сплошная
 62
     7
370
    25
100
AcDbLine
 10
248.3867145115
 20
22.3130090502
 30
0.0
 11
248.0446943682
 21
22.3130090502
 31
0.0
  0
LINE
  5
3DF
330
1F
100
AcDbEntity
  8
0
  6
SLD-Сплошная
 62
     7
370
    25
100
AcDbLine
 10
248.0446943682
 20
28.2290888333
 30
0.0
 11
248.3867145115
 21
28.2290888333
 31
0.0
  0
ARC
  5
3E0
330
1F
100
AcDbEntity
  8
0
  6
SLD-Сплошная
 62
     7
370
    25
100
AcDbCircle
 10
247.9168682011
 20
25.6191183259
 30
0.0
 40
2.651924132522998
100
AcDbArc
 50
79.7949286692
 51
100.2050713309
  0
LINE
  5
3E1
330
1F
100
AcDbEntity
  8
0
  6
SLD-Сплошная
 62
     7
370
    25
100
AcDbLine
 10
247.4470218907
 20
28.2290888333
 30
0.0
 11
247.1050017474
 21
28.2290888333
 31
0.0
  0
ARC
  5
3E2
330
1F
100
AcDbEntity
  8
0
  6
SLD-Сплошная
 62
     7
370
    25
100
AcDbCircle
 10
230.566789949
 20
36.7617263625
 30
0.0
 40
5.521993330705191
100
AcDbArc
 50
2.5077337151
 51
27.0084024346
  0
ARC
  5
3E3
330
1F
100
AcDbEntity
  8
0
  6
SLD-Сплошная
 62
     7
370
    25
100
AcDbCircle
 10
232.0211434792
 20
14.5210489417
 30
0.0
 40
3.805466327406032
100
AcDbArc
 50
330.1455721291
 51
29.8544278709
  0
ARC
  5
3E4
330
1F
100
AcDbEntity
  8
0
  6
SLD-Сплошная
 62
     7
370
    25
100
AcDbCircle
 10
226.4829751392
 20
14.5206318989
 30
0.0
 40
9.654627236949748
100
AcDbArc
 50
346.5620608436
 51
13.5153438976
  0
LINE
  5
3E5
330
1F
100
AcDbEntity
  8
0
  6
SLD-Сплошная
 62
     7
370
    25
100
AcDbLine
 10
175.3185329089
 20
63.3782764252
 30
0.0
 11
182.4207642531
 21
63.3782764252
 31
0.0
  0
LWPOLYLINE
  5
3E6
330
1F
100
AcDbEntity
  8
0
  6
SLD-Сплошная
 62
     7
370
    25
100
AcDbPolyline
 90
        8
 70
   128
 43
0.0
 10
169.333157251
 20
57.7331754094
 10
170.0799451644
 20
58.9879152506
 10
170.9021253549
 20
60.1603288123
 10
171.7502855861
 20
61.1621178558
 10
172.6202898215
 20
61.9883971763
 10
173.5078955025
 20
62.6351374391
 10
174.4087742374
 20
63.0991848281
 10
175.3185329089
 20
63.3782764252
  0
LINE
  5
3E7
330
1F
100
AcDbEntity
  8
0
  6
SLD-Сплошная
 62
     7
370
    25
100
AcDbLine
 10
245.7424474473
 20
24.7710489417
 30
0.0
 11
245.7424474473
 21
25.7710489417
 31
0.0
  0
LINE
  5
3E8
330
1F
100
AcDbEntity
  8
0
  6
SLD-Сплошная
 62
     7
370
    25
100
AcDbLine
 10
247.1050017474
 20
24.7710489417
 30
0.0
 11
245.7424474473
 21
24.7710489417
 31
0.0
  0
LINE
  5
3E9
330
1F
100
AcDbEntity
  8
0
  6
SLD-Сплошная
 62
     7
370
    25
100
AcDbLine
 10
247.1050017474
 20
22.3130090502
 30
0.0
 11
247.1050017474
 21
24.7710489417
 31
0.0
  0
LINE
  5
3EA
330
1F
100
AcDbEntity
  8
0
  6
SLD-Сплошная
 62
     7
370
    25
100
AcDbLine
 10
247.1050017474
 20
25.7710489417
 30
0.0
 11
247.1050017474
 21
28.2290888333
 31
0.0
  0
LINE
  5
3EB
330
1F
100
AcDbEntity
  8
0
  6
SLD-Сплошная
 62
     7
370
    25
100
AcDbLine
 10
245.7424474473
 20
25.7710489417
 30
0.0
 11
247.1050017474
 21
25.7710489417
 31
0.0
  0
LINE
  5
3EC
330
1F
100
AcDbEntity
  8
0
  6
SLD-Сплошная
 62
     7
370
    25
100
AcDbLine
 10
247.4470218907
 20
24.7710489417
 30
0.0
 11
247.1050017474
 21
24.7710489417
 31
0.0
  0
LINE
  5
3ED
330
1F
100
AcDbEntity
  8
0
  6
SLD-Сплошная
 62
     7
370
    25
100
AcDbLine
 10
247.4470218907
 20
24.7710489417
 30
0.0
 11
247.4470218907
 21
22.3130090502
 31
0.0
  0
LINE
  5
3EE
330
1F
100
AcDbEntity
  8
0
  6
SLD-Сплошная
 62
     7
370
    25
100
AcDbLine
 10
247.4470218907
 20
28.2290888333
 30
0.0
 11
247.4470218907
 21
25.7710489417
 31
0.0
  0
LINE
  5
3EF
330
1F
100
AcDbEntity
  8
0
  6
SLD-Сплошная
 62
     7
370
    25
100
AcDbLine
 10
247.4470218907
 20
25.7710489417
 30
0.0
 11
247.1050017474
 21
25.7710489417
 31
0.0
  0
LINE
  5
3F0
330
1F
100
AcDbEntity
  8
0
  6
SLD-Сплошная
 62
     7
370
    25
100
AcDbLine
 10
246.0844675906
 20
25.7710489417
 30
0.0
 11
246.0844675906
 21
24.7710489417
 31
0.0
  0
ARC
  5
3F1
330
1F
100
AcDbEntity
  8
0
  6
SLD-Сплошная
 62
     7
370
    25
100
AcDbCircle
 10
242.2730725523
 20
25.0989714876
 30
0.0
 40
2.828343984013794
100
AcDbArc
 50
270.9891082163
 51
341.0653107333
  0
ARC
  5
3F2
330
1F
100
AcDbEntity
  8
0
  6
SLD-Сплошная
 62
     7
370
    25
100
AcDbCircle
 10
242.2730725523
 20
25.4431263958
 30
0.0
 40
2.828343984013727
100
AcDbArc
 50
18.9346892667
 51
89.0108917837
  0
ARC
  5
3F3
330
1F
100
AcDbEntity
  8
0
  6
SLD-Сплошная
 62
     7
370
    25
100
AcDbCircle
 10
241.6487360549
 20
25.2710489417
 30
0.0
 40
3.028986672189183
100
AcDbArc
 50
102.4252933849
 51
257.5747066151
  0
LINE
  5
3F4
330
1F
100
AcDbEntity
  8
0
  6
SLD-Сплошная
 62
     7
370
    25
100
AcDbLine
 10
240.9969997123
 20
22.3130090502
 30
0.0
 11
241.3390198556
 21
22.3130090502
 31
0.0
  0
ARC
  5
3F5
330
1F
100
AcDbEntity
  8
0
  6
SLD-Сплошная
 62
     7
370
    25
100
AcDbCircle
 10
241.808866166
 20
24.9229795575
 30
0.0
 40
2.65192413252282
100
AcDbArc
 50
259.7949286692
 51
280.2050713309
  0
LINE
  5
3F6
330
1F
100
AcDbEntity
  8
0
  6
SLD-Сплошная
 62
     7
370
    25
100
AcDbLine
 10
242.2787124764
 20
22.3130090502
 30
0.0
 11
241.9366923331
 21
22.3130090502
 31
0.0
  0
ARC
  5
3F7
330
1F
100
AcDbEntity
  8
0
  6
SLD-Сплошная
 62
     7
370
    25
100
AcDbCircle
 10
241.2849559904
 20
25.2710489417
 30
0.0
 40
3.028986672189077
100
AcDbArc
 50
282.4252933849
 51
77.5747066151
  0
LINE
  5
3F8
330
1F
100
AcDbEntity
  8
0
  6
SLD-Сплошная
 62
     7
370
    25
100
AcDbLine
 10
241.9366923331
 20
28.2290888333
 30
0.0
 11
242.2787124764
 21
28.2290888333
 31
0.0
  0
ARC
  5
3F9
330
1F
100
AcDbEntity
  8
0
  6
SLD-Сплошная
 62
     7
370
    25
100
AcDbCircle
 10
241.808866166
 20
25.6191183259
 30
0.0
 40
2.651924132523477
100
AcDbArc
 50
79.7949286692
 51
100.2050713309
  0
LINE
  5
3FA
330
1F
100
AcDbEntity
  8
0
  6
SLD-Сплошная
 62
     7
370
    25
100
AcDbLine
 10
241.3390198556
 20
28.2290888333
 30
0.0
 11
240.9969997123
 21
28.2290888333
 31
0.0
  0
LINE
  5
3FB
330
1F
100
AcDbEntity
  8
0
  6
SLD-Сплошная
 62
     7
370
    25
100
AcDbLine
 10
243.2992466332
 20
25.7710489417
 30
0.0
 11
243.2992466332
 21
24.7710489417
 31
0.0
  0
LINE
  5
3FC
330
1F
100
AcDbEntity
  8
0
  6
SLD-Сплошная
 62
     7
370
    25
100
AcDbLine
 10
241.9366923331
 20
25.7710489417
 30
0.0
 11
243.2992466332
 21
25.7710489417
 31
0.0
  0
LINE
  5
3FD
330
1F
100
AcDbEntity
  8
0
  6
SLD-Сплошная
 62
     7
370
    25
100
AcDbLine
 10
241.9366923331
 20
28.2290888333
 30
0.0
 11
241.9366923331
 21
25.7710489417
 31
0.0
  0
LINE
  5
3FE
330
1F
100
AcDbEntity
  8
0
  6
SLD-Сплошная
 62
     7
370
    25
100
AcDbLine
 10
241.9366923331
 20
24.7710489417
 30
0.0
 11
241.9366923331
 21
22.3130090502
 31
0.0
  0
LINE
  5
3FF
330
1F
100
AcDbEntity
  8
0
  6
SLD-Сплошная
 62
     7
370
    25
100
AcDbLine
 10
243.2992466332
 20
24.7710489417
 30
0.0
 11
241.9366923331
 21
24.7710489417
 31
0.0
  0
LINE
  5
400
330
1F
100
AcDbEntity
  8
0
  6
SLD-Сплошная
 62
     7
370
    25
100
AcDbLine
 10
182.5108080478
 20
-13.1232442977
 30
0.0
 11
176.0036891462
 21
-13.1232442977
 31
0.0
  0
LWPOLYLINE
  5
401
330
1F
100
AcDbEntity
  8
0
  6
SLD-Сплошная
 62
     7
370
    25
100
AcDbPolyline
 90
        8
 70
   128
 43
0.0
 10
170.0429870944
 20
-8.5881331578
 10
170.6936934531
 20
-9.5405091765
 10
171.5357330199
 20
-10.585505892
 10
172.4006628521
 20
-11.4561364557
 10
173.2842651364
 20
-12.1481552548
 10
174.1822310039
 20
-12.6581876732
 10
175.0901815414
 20
-12.983746548
 10
176.0036891462
 20
-13.1232442977
  0
ARC
  5
402
330
1F
100
AcDbEntity
  8
0
  6
SLD-Сплошная
 62
     7
370
    25
100
AcDbCircle
 10
232.2214385836
 20
36.0222499778
 30
0.0
 40
4.900312566653594
100
AcDbArc
 50
351.9736859892
 51
23.2784229085
  0
LINE
  5
403
330
1F
100
AcDbEntity
  8
0
  6
SLD-Сплошная
 62
     7
370
    25
100
AcDbLine
 10
255.0509923256
 20
23.0211432415
 30
0.0
 11
255.2482348829
 21
23.0211531383
 31
0.0
  0
LWPOLYLINE
  5
404
330
1F
100
AcDbEntity
  8
0
  6
SLD-Сплошная
 62
     7
370
    25
100
AcDbPolyline
 90
       12
 70
   128
 43
0.0
 10
236.2833267354
 20
16.7769738721
 10
236.5001327067
 20
16.6858330627
 10
236.6993743476
 20
16.4197943209
 10
236.8649102853
 20
16.0004105234
 10
236.9833297826
 20
15.4616576513
 10
237.0450391961
 20
14.8471822582
 10
237.0450391961
 20
14.2067654859
 10
236.9833297826
 20
13.5922900928
 10
236.8649102853
 20
13.0535372207
 10
236.6993743476
 20
12.6341534232
 10
236.5001327067
 20
12.3681146814
 10
236.2833267354
 20
12.2769738721
  0
LINE
  5
405
330
1F
100
AcDbEntity
  8
0
  6
SLD-Сплошная
 62
     7
370
    25
100
AcDbLine
 10
239.6344454121
 20
24.7710489417
 30
0.0
 11
239.6344454121
 21
25.7710489417
 31
0.0
  0
LINE
  5
406
330
1F
100
AcDbEntity
  8
0
  6
SLD-Сплошная
 62
     7
370
    25
100
AcDbLine
 10
240.9969997123
 20
24.7710489417
 30
0.0
 11
239.6344454121
 21
24.7710489417
 31
0.0
  0
LINE
  5
407
330
1F
100
AcDbEntity
  8
0
  6
SLD-Сплошная
 62
     7
370
    25
100
AcDbLine
 10
240.9969997123
 20
22.3130090502
 30
0.0
 11
240.9969997123
 21
24.7710489417
 31
0.0
  0
LINE
  5
408
330
1F
100
AcDbEntity
  8
0
  6
SLD-Сплошная
 62
     7
370
    25
100
AcDbLine
 10
240.9969997123
 20
25.7710489417
 30
0.0
 11
240.9969997123
 21
28.2290888333
 31
0.0
  0
LINE
  5
409
330
1F
100
AcDbEntity
  8
0
  6
SLD-Сплошная
 62
     7
370
    25
100
AcDbLine
 10
239.6344454121
 20
25.7710489417
 30
0.0
 11
240.9969997123
 21
25.7710489417
 31
0.0
  0
LINE
  5
40A
330
1F
100
AcDbEntity
  8
0
  6
SLD-Сплошная
 62
     7
370
    25
100
AcDbLine
 10
241.3390198556
 20
24.7710489417
 30
0.0
 11
240.9969997123
 21
24.7710489417
 31
0.0
  0
LINE
  5
40B
330
1F
100
AcDbEntity
  8
0
  6
SLD-Сплошная
 62
     7
370
    25
100
AcDbLine
 10
241.3390198556
 20
24.7710489417
 30
0.0
 11
241.3390198556
 21
22.3130090502
 31
0.0
  0
LINE
  5
40C
330
1F
100
AcDbEntity
  8
0
  6
SLD-Сплошная
 62
     7
370
    25
100
AcDbLine
 10
241.3390198556
 20
28.2290888333
 30
0.0
 11
241.3390198556
 21
25.7710489417
 31
0.0
  0
LINE
  5
40D
330
1F
100
AcDbEntity
  8
0
  6
SLD-Сплошная
 62
     7
370
    25
100
AcDbLine
 10
241.3390198556
 20
25.7710489417
 30
0.0
 11
240.9969997123
 21
25.7710489417
 31
0.0
  0
LINE
  5
40E
330
1F
100
AcDbEntity
  8
0
  6
SLD-Сплошная
 62
     7
370
    25
100
AcDbLine
 10
239.9764655555
 20
25.7710489417
 30
0.0
 11
239.9764655555
 21
24.7710489417
 31
0.0
  0
LINE
  5
40F
330
1F
100
AcDbEntity
  8
0
  6
SLD-Сплошная
 62
     7
370
    25
100
AcDbLine
 10
239.9818046097
 20
27.8210489417
 30
0.0
 11
238.0919608095
 21
27.8210489417
 31
0.0
  0
LINE
  5
410
330
1F
100
AcDbEntity
  8
0
  6
SLD-Сплошная
 62
     7
370
    25
100
AcDbLine
 10
239.9818046097
 20
22.7210489417
 30
0.0
 11
238.0919608095
 21
22.7210489417
 31
0.0
  0
LWPOLYLINE
  5
411
330
1F
100
AcDbEntity
  8
0
  6
SLD-Сплошная
 62
     7
370
    25
100
AcDbPolyline
 90
       12
 70
   128
 43
0.0
 10
255.2482348829
 20
23.0211531383
 10
255.464086587
 20
23.1178182951
 10
255.6619611822
 20
23.3878654816
 10
255.8259254476
 20
23.8095500098
 10
255.942776684
 20
24.3489170778
 10
256.003105818
 20
24.962535873
 10
256.0020550388
 20
25.6009966989
 10
255.9397089568
 20
26.2128895342
 10
255.8210877915
 20
26.7489436598
 10
255.6557431339
 20
27.1659950271
 10
255.4569888351
 20
27.430461905
 10
255.2408289512
 20
27.5210489417
  0
LINE
  5
412
330
1F
100
AcDbEntity
  8
0
  6
SLD-Сплошная
 62
     7
370
    25
100
AcDbLine
 10
186.2125885882
 20
55.2622991359
 30
0.0
 11
189.6267785313
 21
55.2622991359
 31
0.0
  0
LINE
  5
413
330
1F
100
AcDbEntity
  8
0
  6
SLD-Сплошная
 62
     7
370
    25
100
AcDbLine
 10
192.3620020638
 20
55.4717147223
 30
0.0
 11
190.1676552746
 21
55.4717147223
 31
0.0
  0
LINE
  5
414
330
1F
100
AcDbEntity
  8
0
  6
SLD-Сплошная
 62
     7
370
    25
100
AcDbLine
 10
189.5055686553
 20
-4.9201946508
 30
0.0
 11
192.9028788072
 21
-4.9201946508
 31
0.0
  0
LINE
  5
415
330
1F
100
AcDbEntity
  8
0
  6
SLD-Сплошная
 62
     7
370
    25
100
AcDbLine
 10
190.1676552747
 20
-5.1296102373
 30
0.0
 11
186.5573613013
 21
-5.1296102373
 31
0.0
  0
ARC
  5
416
330
1F
100
AcDbEntity
  8
0
  6
SLD-Сплошная
 62
     7
370
    25
100
AcDbCircle
 10
188.5498812392
 20
66.1688625523
 30
0.0
 40
0.9090464713409742
100
AcDbArc
 50
156.2807550341
 51
179.8922668976
  0
LWPOLYLINE
  5
417
330
1F
100
AcDbEntity
  8
0
  6
SLD-Сплошная
 62
     7
370
    25
100
AcDbPolyline
 90
        9
 70
   128
 43
0.0
 10
187.7176241666
 20
66.5345313261
 10
187.7997652951
 20
66.6680645198
 10
187.8873912858
 20
66.7674177351
 10
187.9788479759
 20
66.8307154279
 10
188.0724088883
 20
66.856762694
 10
188.1663078235
 20
66.8450678249
 10
188.258772201
 20
66.7958515911
 10
188.348056521
 20
66.7100430738
 10
188.4324753157
 20
66.5892621263
  0
ARC
  5
418
330
1F
100
AcDbEntity
  8
0
  6
SLD-Сплошная
 62
     7
370
    25
100
AcDbCircle
 10
187.682793115
 20
66.2262287175
 30
0.0
 40
0.8329565762996983
100
AcDbArc
 50
0.7788731918
 51
25.8385741278
  0
LINE
  5
419
330
1F
100
AcDbEntity
  8
0
  6
SLD-Сплошная
 62
     7
370
    25
100
AcDbLine
 10
188.5156727297
 20
66.2375514985
 30
0.0
 11
188.5594774052
 21
65.4597955745
 31
0.0
  0
LINE
  5
41A
330
1F
100
AcDbEntity
  8
0
  6
SLD-Сплошная
 62
     7
370
    25
100
AcDbLine
 10
187.6109608372
 20
65.3857947788
 30
0.0
 11
187.6408363748
 21
66.170571829
 31
0.0
  0
LINE
  5
41B
330
1F
100
AcDbEntity
  8
0
  6
SLD-Сплошная
 62
     7
370
    25
100
AcDbLine
 10
188.3758288841
 20
-15.8954470136
 30
0.0
 11
188.331946819
 21
-15.1163170309
 31
0.0
  0
ARC
  5
41C
330
1F
100
AcDbEntity
  8
0
  6
SLD-Сплошная
 62
     7
370
    25
100
AcDbCircle
 10
188.3416203746
 20
-15.8267580674
 30
0.0
 40
0.909046471344412
100
AcDbArc
 50
336.2807550342
 51
359.8922668976
  0
LWPOLYLINE
  5
41D
330
1F
100
AcDbEntity
  8
0
  6
SLD-Сплошная
 62
     7
370
    25
100
AcDbPolyline
 90
        9
 70
   128
 43
0.0
 10
189.1738774473
 20
-16.1924268412
 10
189.0917363187
 20
-16.3259600349
 10
189.004110328
 20
-16.4253132501
 10
188.9126536379
 20
-16.488610943
 10
188.8190927255
 20
-16.514658209
 10
188.7251937903
 20
-16.50296334
 10
188.6327294128
 20
-16.4537471061
 10
188.5434450928
 20
-16.3679385888
 10
188.4590262981
 20
-16.2471576414
  0
ARC
  5
41E
330
1F
100
AcDbEntity
  8
0
  6
SLD-Сплошная
 62
     7
370
    25
100
AcDbCircle
 10
189.2087084989
 20
-15.8841242325
 30
0.0
 40
0.8329565763616833
100
AcDbArc
 50
180.7788731928
 51
205.838574127
  0
LINE
  5
41F
330
1F
100
AcDbEntity
  8
0
  6
SLD-Сплошная
 62
     7
370
    25
100
AcDbLine
 10
189.2777236535
 20
-15.1176910895
 30
0.0
 11
189.250665239
 21
-15.828467344
 31
0.0
  0
SPLINE
  5
420
330
1F
100
AcDbEntity
  8
0
  6
SLD-Сплошная
 62
     7
370
    25
100
AcDbSpline
210
0.0
220
0.0
230
1.0
 70
     8
 71
     3
 72
    12
 73
     8
 74
     0
 42
0.00000001
 43
0.00000001
 40
0.0
 40
0.0
 40
0.0
 40
0.0
 40
0.3430931124892043
 40
0.6909509895845231
 40
0.8415372540249904
 40
0.9622695695936352
 40
1.0
 40
1.0
 40
1.0
 40
1.0
 10
172.3079932457829
 20
64.30216131118283
 30
0.0
 10
172.3408051742084
 20
64.04602807423711
 30
0.0
 10
172.4068847123584
 20
63.53020450596683
 30
0.0
 10
172.6008183949174
 20
62.93106243695171
 30
0.0
 10
172.817591144014
 20
62.53952177396879
 30
0.0
 10
172.9472057396271
 20
62.35164836167688
 30
0.0
 10
173.0426482608638
 20
62.2899617710674
 30
0.0
 10
173.0653733965617
 20
62.27527401843711
 30
0.0
  0
SPLINE
  5
421
330
1F
100
AcDbEntity
  8
0
  6
SLD-Сплошная
 62
     7
370
    25
100
AcDbSpline
210
0.0
220
0.0
230
1.0
 70
     8
 71
     3
 72
    13
 73
     9
 74
     0
 42
0.00000001
 43
0.00000001
 40
0.0
 40
0.0
 40
0.0
 40
0.0
 40
0.141382048690028
 40
0.2732786943115047
 40
0.523739873558778
 40
0.7664895644784893
 40
0.9918345177070071
 40
1.0
 40
1.0
 40
1.0
 40
1.0
 10
173.1471456821768
 20
66.53453132614143
 30
0.0
 10
173.0811042108105
 20
66.52956586946391
 30
0.0
 10
172.9534520284253
 20
66.51996809145696
 30
0.0
 10
172.7226803621969
 20
66.43109428170447
 30
0.0
 10
172.4856246269667
 20
66.24056656390681
 30
0.0
 10
172.3115795578466
 20
65.94100469213937
 30
0.0
 10
172.2232329867538
 20
65.71996188076815
 30
0.0
 10
172.2207522811148
 20
65.60518124160386
 30
0.0
 10
172.2206655348505
 20
65.60116754827757
 30
0.0
  0
SPLINE
  5
422
330
1F
100
AcDbEntity
  8
0
  6
SLD-Сплошная
 62
     7
370
    25
100
AcDbSpline
210
0.0
220
0.0
230
1.0
 70
     8
 71
     3
 72
    12
 73
     8
 74
     0
 42
0.00000001
 43
0.00000001
 40
0.0
 40
0.0
 40
0.0
 40
0.0
 40
0.0378318498445228
 40
0.248345135070479
 40
0.5113470515707296
 40
0.8734825687542661
 40
1.0
 40
1.0
 40
1.0
 40
1.0
 10
173.5379629025842
 20
-12.23109313073285
 30
0.0
 10
173.5251058337692
 20
-12.24649259078148
 30
0.0
 10
173.4407062999217
 20
-12.3475815145721
 30
0.0
 10
173.3240359255177
 20
-12.59845562191757
 30
0.0
 10
173.171234026015
 20
-13.02387387201746
 30
0.0
 10
173.0707992478529
 20
-13.42515715191957
 30
0.0
 10
173.0413130661792
 20
-13.69471767593172
 30
0.0
 10
173.0336787809987
 20
-13.76450975469212
 30
0.0
  0
LINE
  5
423
330
1F
100
AcDbEntity
  8
0
  6
SLD-Сплошная
 62
     7
370
    25
100
AcDbLine
 10
172.9540235219
 20
-14.344239916
 30
0.0
 11
172.9537387459
 21
-14.3417900211
 31
0.0
  0
SPLINE
  5
424
330
1F
100
AcDbEntity
  8
0
  6
SLD-Сплошная
 62
     7
370
    25
100
AcDbSpline
210
0.0
220
0.0
230
1.0
 70
     8
 71
     3
 72
    10
 73
     6
 74
     0
 42
0.00000001
 43
0.00000001
 40
0.0
 40
0.0
 40
0.0
 40
0.0
 40
0.5
 40
0.5
 40
1.0
 40
1.0
 40
1.0
 40
1.0
 10
172.9665846704426
 20
-14.31815029221677
 30
0.0
 10
172.9455016201687
 20
-14.60462314066176
 30
0.0
 10
172.8749771489118
 20
-14.91574324499187
 30
0.0
 10
173.0169573667017
 20
-15.73512052531576
 30
0.0
 10
173.3357673062383
 20
-16.24132185281548
 30
0.0
 10
173.8885478137859
 20
-16.24715764138317
 30
0.0
  0
ENDSEC
  0
SECTION
  2
OBJECTS
  0
DICTIONARY
  5
C
330
0
100
AcDbDictionary
281
     1
  3
ACAD_GROUP
350
D
  3
ACAD_LAYOUT
350
1A
  3
ACAD_MLINESTYLE
350
17
  3
ACAD_PLOTSETTINGS
350
19
  3
ACAD_PLOTSTYLENAME
350
E
  3
ACAD_SCALELIST
350
47
  3
DWGPROPS
350
425
  0
DICTIONARY
  5
D
102
{ACAD_REACTORS
330
C
102
}
330
C
100
AcDbDictionary
281
     1
  0
DICTIONARY
  5
1A
102
{ACAD_REACTORS
330
C
102
}
330
C
100
AcDbDictionary
281
     1
  3
Layout1
350
1E
  3
Layout2
350
26
  3
Model
350
22
  0
DICTIONARY
  5
17
102
{ACAD_REACTORS
330
C
102
}
330
C
100
AcDbDictionary
281
     1
  3
Standard
350
18
  0
DICTIONARY
  5
19
102
{ACAD_REACTORS
330
C
102
}
330
C
100
AcDbDictionary
281
     1
  0
ACDBDICTIONARYWDFLT
  5
E
102
{ACAD_REACTORS
330
C
102
}
330
C
100
AcDbDictionary
281
     1
  3
Normal
350
F
100
AcDbDictionaryWithDefault
340
F
  0
DICTIONARY
  5
47
102
{ACAD_REACTORS
330
C
102
}
330
C
100
AcDbDictionary
281
     1
  3
A0
350
48
  3
A1
350
49
  3
A2
350
4A
  3
A3
350
4B
  3
A4
350
4C
  3
A5
350
4D
  3
A6
350
4E
  3
A7
350
4F
  3
A8
350
50
  3
A9
350
51
  3
B0
350
52
  3
B1
350
53
  3
B2
350
54
  3
B3
350
55
  3
B4
350
56
  3
B5
350
57
  3
B6
350
58
  0
XRECORD
  5
425
102
{ACAD_REACTORS
330
C
102
}
330
C
100
AcDbXrecord
280
     1
  1
DWGPROPS COOKIE
  2

  3

  4

  6

  7

  8
inyankin
  9

300
=
301
=
302
=
303
=
304
=
305
=
306
=
307
=
308
=
309
=
 40
0.0
 41
2461026.582366146
 42
2461026.582366806
  1

 90
        0
  0
LAYOUT
  5
1E
102
{ACAD_REACTORS
330
1A
102
}
330
1A
100
AcDbPlotSettings
  1

  2
none_device
  4

  6

 40
0.0
 41
0.0
 42
0.0
 43
0.0
 44
0.0
 45
0.0
 46
0.0
 47
0.0
 48
0.0
 49
0.0
140
0.0
141
0.0
142
1.0
143
1.0
 70
   688
 72
     1
 73
     0
 74
     5
  7

 75
    16
147
1.0
148
0.0
149
0.0
100
AcDbLayout
  1
Layout1
 70
     1
 71
     1
 10
0.0
 20
0.0
 11
420.0
 21
297.0
 12
0.0
 22
0.0
 32
0.0
 14
1.0000000000E+20
 24
1.0000000000E+20
 34
1.0000000000E+20
 15
-1.0000000000E+20
 25
-1.0000000000E+20
 35
-1.0000000000E+20
146
0.0
 13
0.0
 23
0.0
 33
0.0
 16
1.0
 26
0.0
 36
0.0
 17
0.0
 27
1.0
 37
0.0
 76
     0
330
1B
  0
LAYOUT
  5
26
102
{ACAD_REACTORS
330
1A
102
}
330
1A
100
AcDbPlotSettings
  1

  2
none_device
  4

  6

 40
0.0
 41
0.0
 42
0.0
 43
0.0
 44
0.0
 45
0.0
 46
0.0
 47
0.0
 48
0.0
 49
0.0
140
0.0
141
0.0
142
1.0
143
1.0
 70
   688
 72
     1
 73
     0
 74
     5
  7

 75
    16
147
1.0
148
0.0
149
0.0
100
AcDbLayout
  1
Layout2
 70
     1
 71
     2
 10
0.0
 20
0.0
 11
0.0
 21
0.0
 12
0.0
 22
0.0
 32
0.0
 14
0.0
 24
0.0
 34
0.0
 15
0.0
 25
0.0
 35
0.0
146
0.0
 13
0.0
 23
0.0
 33
0.0
 16
1.0
 26
0.0
 36
0.0
 17
0.0
 27
1.0
 37
0.0
 76
     0
330
23
  0
LAYOUT
  5
22
102
{ACAD_REACTORS
330
1A
102
}
330
1A
100
AcDbPlotSettings
  1

  2
none_device
  4
Letter_(8.50_x_11.00_Inches)
  6

 40
6.35
 41
6.35
 42
6.35000508
 43
6.35000508
 44
215.9
 45
279.4
 46
0.0
 47
0.0
 48
0.0
 49
0.0
140
0.0
141
0.0
142
1.0
143
1.0
 70
  1712
 72
     1
 73
     0
 74
     0
  7

 75
     0
147
1.0
148
0.0
149
0.0
100
AcDbLayout
  1
Model
 70
     1
 71
     0
 10
0.0
 20
0.0
 11
431.8
 21
279.4
 12
0.0
 22
0.0
 32
0.0
 14
0.0
 24
0.0
 34
0.0
 15
431.8
 25
279.4
 35
0.0
146
0.0
 13
0.0
 23
0.0
 33
0.0
 16
1.0
 26
0.0
 36
0.0
 17
0.0
 27
1.0
 37
0.0
 76
     0
330
1F
331
29
  0
MLINESTYLE
  5
18
102
{ACAD_REACTORS
330
17
102
}
330
17
100
AcDbMlineStyle
  2
Standard
 70
     0
  3

 62
   256
 51
90.0
 52
90.0
 71
     2
 49
0.5
 62
   256
  6
BYLAYER
 49
-0.5
 62
   256
  6
BYLAYER
  0
ACDBPLACEHOLDER
  5
F
102
{ACAD_REACTORS
330
E
102
}
330
E
  0
SCALE
  5
48
102
{ACAD_REACTORS
330
47
102
}
330
47
100
AcDbScale
 70
     0
300
1:1
140
1.0
141
1.0
290
     1
  0
SCALE
  5
49
102
{ACAD_REACTORS
330
47
102
}
330
47
100
AcDbScale
 70
     0
300
1:2
140
1.0
141
2.0
290
     0
  0
SCALE
  5
4A
102
{ACAD_REACTORS
330
47
102
}
330
47
100
AcDbScale
 70
     0
300
1:4
140
1.0
141
4.0
290
     0
  0
SCALE
  5
4B
102
{ACAD_REACTORS
330
47
102
}
330
47
100
AcDbScale
 70
     0
300
1:5
140
1.0
141
5.0
290
     0
  0
SCALE
  5
4C
102
{ACAD_REACTORS
330
47
102
}
330
47
100
AcDbScale
 70
     0
300
1:8
140
1.0
141
8.0
290
     0
  0
SCALE
  5
4D
102
{ACAD_REACTORS
330
47
102
}
330
47
100
AcDbScale
 70
     0
300
1:10
140
1.0
141
10.0
290
     0
  0
SCALE
  5
4E
102
{ACAD_REACTORS
330
47
102
}
330
47
100
AcDbScale
 70
     0
300
1:16
140
1.0
141
16.0
290
     0
  0
SCALE
  5
4F
102
{ACAD_REACTORS
330
47
102
}
330
47
100
AcDbScale
 70
     0
300
1:20
140
1.0
141
20.0
290
     0
  0
SCALE
  5
50
102
{ACAD_REACTORS
330
47
102
}
330
47
100
AcDbScale
 70
     0
300
1:30
140
1.0
141
30.0
290
     0
  0
SCALE
  5
51
102
{ACAD_REACTORS
330
47
102
}
330
47
100
AcDbScale
 70
     0
300
1:40
140
1.0
141
40.0
290
     0
  0
SCALE
  5
52
102
{ACAD_REACTORS
330
47
102
}
330
47
100
AcDbScale
 70
     0
300
1:50
140
1.0
141
50.0
290
     0
  0
SCALE
  5
53
102
{ACAD_REACTORS
330
47
102
}
330
47
100
AcDbScale
 70
     0
300
1:100
140
1.0
141
100.0
290
     0
  0
SCALE
  5
54
102
{ACAD_REACTORS
330
47
102
}
330
47
100
AcDbScale
 70
     0
300
2:1
140
2.0
141
1.0
290
     0
  0
SCALE
  5
55
102
{ACAD_REACTORS
330
47
102
}
330
47
100
AcDbScale
 70
     0
300
4:1
140
4.0
141
1.0
290
     0
  0
SCALE
  5
56
102
{ACAD_REACTORS
330
47
102
}
330
47
100
AcDbScale
 70
     0
300
8:1
140
8.0
141
1.0
290
     0
  0
SCALE
  5
57
102
{ACAD_REACTORS
330
47
102
}
330
47
100
AcDbScale
 70
     0
300
10:1
140
10.0
141
1.0
290
     0
  0
SCALE
  5
58
102
{ACAD_REACTORS
330
47
102
}
330
47
100
AcDbScale
 70
     0
300
100:1
140
100.0
141
1.0
290
     0
  0
ENDSEC
  0
EOF
